ISO-10303-21;
HEADER;
FILE_DESCRIPTION (( 'STEP AP214' ),
    '1' );
FILE_NAME ('5HAPL006',
    '2019-02-01T12:50:20',
    ( '' ),
    ('JUGARD+KÜNSTNER GmbH'),
    'SwSTEP 2.0',
    'SolidWorks 2017',
    '' );
FILE_SCHEMA (( 'AUTOMOTIVE_DESIGN' ));
ENDSEC;

DATA;
#1 = PRESENTATION_STYLE_ASSIGNMENT (( #46 ) ) ;
#2 = VECTOR ( 'NONE', #161, 1000.000000000000000 ) ;
#3 = EDGE_CURVE ( 'NONE', #123, #121, #145, .T. ) ;
#4 = CARTESIAN_POINT ( 'NONE',  ( -7.105427357601000600E-014, -7.105427357601000600E-014, 1.126944150315730100E-028 ) ) ;
#5 = VECTOR ( 'NONE', #64, 1000.000000000000000 ) ;
#6 = ORIENTED_EDGE ( 'NONE', *, *, #184, .F. ) ;
#7 = DIRECTION ( 'NONE',  ( 1.000000000000000000, 0.0000000000000000000, -0.0000000000000000000 ) ) ;
#8 = PRODUCT_DEFINITION_SHAPE ( 'NONE', 'NONE',  #44 ) ;
#9 = CARTESIAN_POINT ( 'NONE',  ( -500.0000000000000000, 0.0000000000000000000, 1.126944150315730100E-028 ) ) ;
#10 = FACE_OUTER_BOUND ( 'NONE', #67, .T. ) ;
#11 = DIRECTION ( 'NONE',  ( 0.0000000000000000000, 0.0000000000000000000, 1.000000000000000000 ) ) ;
#12 = SURFACE_SIDE_STYLE ('',( #202 ) ) ;
#13 = VERTEX_POINT ( 'NONE', #112 ) ;
#14 = APPLICATION_PROTOCOL_DEFINITION ( 'draft international standard', 'automotive_design', 1998, #86 ) ;
#15 = PRODUCT_CONTEXT ( 'NONE', #180, 'mechanical' ) ;
#16 = ADVANCED_FACE ( 'NONE', ( #117 ), #39, .F. ) ;
#17 =( GEOMETRIC_REPRESENTATION_CONTEXT ( 3 ) GLOBAL_UNCERTAINTY_ASSIGNED_CONTEXT ( ( #34 ) ) GLOBAL_UNIT_ASSIGNED_CONTEXT ( ( #136, #58, #104 ) ) REPRESENTATION_CONTEXT ( 'NONE', 'WORKASPACE' ) );
#18 = ORIENTED_EDGE ( 'NONE', *, *, #130, .F. ) ;
#19 = PRESENTATION_LAYER_ASSIGNMENT (  '', '', ( #30 ) ) ;
#20 = LINE ( 'NONE', #111, #45 ) ;
#21 = CARTESIAN_POINT ( 'NONE',  ( 0.0000000000000000000, -250.0000000000000000, 1.126944150315730100E-028 ) ) ;
#22 = EDGE_CURVE ( 'NONE', #99, #50, #85, .T. ) ;
#23 = COLOUR_RGB ( '',0.7529411764705882200, 0.7529411764705882200, 0.7529411764705882200 ) ;
#24 = DIRECTION ( 'NONE',  ( 0.0000000000000000000, 1.000000000000000000, 0.0000000000000000000 ) ) ;
#25 = DIRECTION ( 'NONE',  ( 0.0000000000000000000, 0.0000000000000000000, 1.000000000000000000 ) ) ;
#26 = VECTOR ( 'NONE', #176, 1000.000000000000000 ) ;
#27 = VECTOR ( 'NONE', #191, 1000.000000000000000 ) ;
#28 = ORIENTED_EDGE ( 'NONE', *, *, #109, .F. ) ;
#29 = DIRECTION ( 'NONE',  ( 0.0000000000000000000, 0.0000000000000000000, 1.000000000000000000 ) ) ;
#30 = STYLED_ITEM ( 'NONE', ( #1 ), #42 ) ;
#31 = SURFACE_STYLE_USAGE ( .BOTH. , #12 ) ;
#32 = ADVANCED_FACE ( 'NONE', ( #10 ), #128, .T. ) ;
#33 = LINE ( 'NONE', #192, #160 ) ;
#34 = UNCERTAINTY_MEASURE_WITH_UNIT (LENGTH_MEASURE( 1.000000000000000100E-005 ), #136, 'distance_accuracy_value', 'NONE');
#35 = STYLED_ITEM ( 'NONE', ( #174 ), #197 ) ;
#36 = LINE ( 'NONE', #52, #199 ) ;
#37 = CLOSED_SHELL ( 'NONE', ( #16, #88, #71, #32, #190, #163 ) ) ;
#38 = PLANE ( 'NONE',  #69 ) ;
#39 = PLANE ( 'NONE',  #84 ) ;
#40 = CARTESIAN_POINT ( 'NONE',  ( -500.0000000000000000, -250.0000000000000000, 1.126944150315730100E-028 ) ) ;
#41 = EDGE_LOOP ( 'NONE', ( #28, #18, #167, #92 ) ) ;
#42 = ADVANCED_BREP_SHAPE_REPRESENTATION ( '5HAPL006_CNAJF00', ( #197, #169 ), #81 ) ;
#43 = DIRECTION ( 'NONE',  ( -0.0000000000000000000, 0.0000000000000000000, -1.000000000000000000 ) ) ;
#44 = PRODUCT_DEFINITION ( 'UNKNOWN', '', #201, #150 ) ;
#45 = VECTOR ( 'NONE', #76, 1000.000000000000000 ) ;
#46 = SURFACE_STYLE_USAGE ( .BOTH. , #102 ) ;
#47 = EDGE_CURVE ( 'NONE', #50, #132, #20, .T. ) ;
#48 = UNCERTAINTY_MEASURE_WITH_UNIT (LENGTH_MEASURE( 1.000000000000000100E-005 ), #195, 'distance_accuracy_value', 'NONE');
#49 = ORIENTED_EDGE ( 'NONE', *, *, #22, .F. ) ;
#50 = VERTEX_POINT ( 'NONE', #124 ) ;
#51 = ORIENTED_EDGE ( 'NONE', *, *, #139, .T. ) ;
#52 = CARTESIAN_POINT ( 'NONE',  ( 0.0000000000000000000, 250.0000000000000000, 15.00000000000000000 ) ) ;
#53 = ORIENTED_EDGE ( 'NONE', *, *, #47, .F. ) ;
#54 = CARTESIAN_POINT ( 'NONE',  ( -500.0000000000000000, -250.0000000000000000, 15.00000000000000000 ) ) ;
#55 = DIRECTION ( 'NONE',  ( 1.000000000000000000, 0.0000000000000000000, 0.0000000000000000000 ) ) ;
#56 = FACE_OUTER_BOUND ( 'NONE', #41, .T. ) ;
#57 = DIRECTION ( 'NONE',  ( 1.000000000000000000, 0.0000000000000000000, -0.0000000000000000000 ) ) ;
#58 =( NAMED_UNIT ( * ) PLANE_ANGLE_UNIT ( ) SI_UNIT ( $, .RADIAN. ) );
#59 = LINE ( 'NONE', #98, #178 ) ;
#60 = ORIENTED_EDGE ( 'NONE', *, *, #119, .T. ) ;
#61 = VECTOR ( 'NONE', #172, 1000.000000000000000 ) ;
#62 = EDGE_LOOP ( 'NONE', ( #60, #146, #127, #51 ) ) ;
#63 = CARTESIAN_POINT ( 'NONE',  ( -7.105427357601000600E-014, -7.105427357601000600E-014, 15.00000000000000000 ) ) ;
#64 = DIRECTION ( 'NONE',  ( -1.000000000000000000, -0.0000000000000000000, 0.0000000000000000000 ) ) ;
#65 = CARTESIAN_POINT ( 'NONE',  ( -500.0000000000000000, 0.0000000000000000000, 15.00000000000000000 ) ) ;
#66 = EDGE_CURVE ( 'NONE', #121, #50, #106, .T. ) ;
#67 = EDGE_LOOP ( 'NONE', ( #103, #156, #141, #87 ) ) ;
#68 = FILL_AREA_STYLE_COLOUR ( '', #23 ) ;
#69 = AXIS2_PLACEMENT_3D ( 'NONE', #21, #154, #151 ) ;
#70 = CARTESIAN_POINT ( 'NONE',  ( 500.0000000000000000, -250.0000000000000000, 1.126944150315730100E-028 ) ) ;
#71 = ADVANCED_FACE ( 'NONE', ( #149 ), #188, .T. ) ;
#72 = COLOUR_RGB ( '',1.000000000000000000, 1.000000000000000000, 1.000000000000000000 ) ;
#73 = ORIENTED_EDGE ( 'NONE', *, *, #119, .F. ) ;
#74 = EDGE_CURVE ( 'NONE', #13, #123, #59, .T. ) ;
#75 = VECTOR ( 'NONE', #79, 1000.000000000000000 ) ;
#76 = DIRECTION ( 'NONE',  ( 0.0000000000000000000, -1.000000000000000000, -0.0000000000000000000 ) ) ;
#77 = CARTESIAN_POINT ( 'NONE',  ( 0.0000000000000000000, 250.0000000000000000, 1.126944150315730100E-028 ) ) ;
#78 = DIRECTION ( 'NONE',  ( 0.0000000000000000000, 0.0000000000000000000, 1.000000000000000000 ) ) ;
#79 = DIRECTION ( 'NONE',  ( 1.000000000000000000, 0.0000000000000000000, -0.0000000000000000000 ) ) ;
#80 = LINE ( 'NONE', #171, #75 ) ;
#81 =( GEOMETRIC_REPRESENTATION_CONTEXT ( 3 ) GLOBAL_UNCERTAINTY_ASSIGNED_CONTEXT ( ( #48 ) ) GLOBAL_UNIT_ASSIGNED_CONTEXT ( ( #195, #89, #148 ) ) REPRESENTATION_CONTEXT ( 'NONE', 'WORKASPACE' ) );
#82 = DIRECTION ( 'NONE',  ( 0.0000000000000000000, -0.0000000000000000000, -1.000000000000000000 ) ) ;
#83 =( NAMED_UNIT ( * ) PLANE_ANGLE_UNIT ( ) SI_UNIT ( $, .RADIAN. ) );
#84 = AXIS2_PLACEMENT_3D ( 'NONE', #4, #25, #125 ) ;
#85 = LINE ( 'NONE', #153, #5 ) ;
#86 = APPLICATION_CONTEXT ( 'automotive_design' ) ;
#87 = ORIENTED_EDGE ( 'NONE', *, *, #184, .T. ) ;
#88 = ADVANCED_FACE ( 'NONE', ( #165 ), #38, .T. ) ;
#89 =( NAMED_UNIT ( * ) PLANE_ANGLE_UNIT ( ) SI_UNIT ( $, .RADIAN. ) );
#90 = UNCERTAINTY_MEASURE_WITH_UNIT (LENGTH_MEASURE( 1.000000000000000100E-005 ), #179, 'distance_accuracy_value', 'NONE');
#91 = ORIENTED_EDGE ( 'NONE', *, *, #109, .T. ) ;
#92 = ORIENTED_EDGE ( 'NONE', *, *, #74, .F. ) ;
#93 = ORIENTED_EDGE ( 'NONE', *, *, #3, .T. ) ;
#94 = VECTOR ( 'NONE', #82, 1000.000000000000000 ) ;
#95 = EDGE_LOOP ( 'NONE', ( #166, #6, #91, #137 ) ) ;
#96 = PLANE ( 'NONE',  #143 ) ;
#97 = DIRECTION ( 'NONE',  ( 0.0000000000000000000, -0.0000000000000000000, 1.000000000000000000 ) ) ;
#98 = CARTESIAN_POINT ( 'NONE',  ( 0.0000000000000000000, -250.0000000000000000, 15.00000000000000000 ) ) ;
#99 = VERTEX_POINT ( 'NONE', #100 ) ;
#100 = CARTESIAN_POINT ( 'NONE',  ( 500.0000000000000000, 250.0000000000000000, 1.126944150315730100E-028 ) ) ;
#101 = CARTESIAN_POINT ( 'NONE',  ( -500.0000000000000000, 250.0000000000000000, 15.00000000000000000 ) ) ;
#102 = SURFACE_SIDE_STYLE ('',( #164 ) ) ;
#103 = ORIENTED_EDGE ( 'NONE', *, *, #22, .T. ) ;
#104 =( NAMED_UNIT ( * ) SI_UNIT ( $, .STERADIAN. ) SOLID_ANGLE_UNIT ( ) );
#105 = CARTESIAN_POINT ( 'NONE',  ( 500.0000000000000000, -7.105427357601000600E-014, 1.126944150315730100E-028 ) ) ;
#106 = LINE ( 'NONE', #175, #27 ) ;
#107 = AXIS2_PLACEMENT_3D ( 'NONE', #9, #113, #78 ) ;
#108 = PRODUCT_RELATED_PRODUCT_CATEGORY ( 'part', '', ( #114 ) ) ;
#109 = EDGE_CURVE ( 'NONE', #168, #13, #33, .T. ) ;
#110 = EDGE_LOOP ( 'NONE', ( #53, #49, #200, #73 ) ) ;
#111 = CARTESIAN_POINT ( 'NONE',  ( -500.0000000000000000, -7.105427357601000600E-014, 1.126944150315730100E-028 ) ) ;
#112 = CARTESIAN_POINT ( 'NONE',  ( 500.0000000000000000, -250.0000000000000000, 15.00000000000000000 ) ) ;
#113 = DIRECTION ( 'NONE',  ( -1.000000000000000000, 0.0000000000000000000, 0.0000000000000000000 ) ) ;
#114 = PRODUCT ( '5HAPL006_CNAJF00', '5HAPL006_CNAJF00', '', ( #15 ) ) ;
#115 = CARTESIAN_POINT ( 'NONE',  ( 500.0000000000000000, 0.0000000000000000000, 1.126944150315730100E-028 ) ) ;
#116 = AXIS2_PLACEMENT_3D ( 'NONE', #77, #24, #97 ) ;
#117 = FACE_OUTER_BOUND ( 'NONE', #110, .T. ) ;
#118 = FILL_AREA_STYLE ('',( #68 ) ) ;
#119 = EDGE_CURVE ( 'NONE', #132, #134, #80, .T. ) ;
#120 = LINE ( 'NONE', #162, #170 ) ;
#121 = VERTEX_POINT ( 'NONE', #101 ) ;
#122 = LINE ( 'NONE', #157, #94 ) ;
#123 = VERTEX_POINT ( 'NONE', #54 ) ;
#124 = CARTESIAN_POINT ( 'NONE',  ( -500.0000000000000000, 250.0000000000000000, 1.126944150315730100E-028 ) ) ;
#125 = DIRECTION ( 'NONE',  ( 1.000000000000000000, 0.0000000000000000000, -0.0000000000000000000 ) ) ;
#126 = DIRECTION ( 'NONE',  ( -1.000000000000000000, -0.0000000000000000000, -0.0000000000000000000 ) ) ;
#127 = ORIENTED_EDGE ( 'NONE', *, *, #74, .T. ) ;
#128 = PLANE ( 'NONE',  #116 ) ;
#129 = FILL_AREA_STYLE ('',( #159 ) ) ;
#130 = EDGE_CURVE ( 'NONE', #121, #168, #36, .T. ) ;
#131 = DIRECTION ( 'NONE',  ( 0.0000000000000000000, 0.0000000000000000000, -1.000000000000000000 ) ) ;
#132 = VERTEX_POINT ( 'NONE', #40 ) ;
#133 = DIRECTION ( 'NONE',  ( 1.000000000000000000, 0.0000000000000000000, 0.0000000000000000000 ) ) ;
#134 = VERTEX_POINT ( 'NONE', #144 ) ;
#135 =( GEOMETRIC_REPRESENTATION_CONTEXT ( 3 ) GLOBAL_UNCERTAINTY_ASSIGNED_CONTEXT ( ( #90 ) ) GLOBAL_UNIT_ASSIGNED_CONTEXT ( ( #179, #83, #193 ) ) REPRESENTATION_CONTEXT ( 'NONE', 'WORKASPACE' ) );
#136 =( LENGTH_UNIT ( ) NAMED_UNIT ( * ) SI_UNIT ( .MILLI., .METRE. ) );
#137 = ORIENTED_EDGE ( 'NONE', *, *, #173, .F. ) ;
#138 = ORIENTED_EDGE ( 'NONE', *, *, #66, .T. ) ;
#139 = EDGE_CURVE ( 'NONE', #123, #132, #122, .T. ) ;
#140 = EDGE_LOOP ( 'NONE', ( #185, #194, #93, #138 ) ) ;
#141 = ORIENTED_EDGE ( 'NONE', *, *, #130, .T. ) ;
#142 = MECHANICAL_DESIGN_GEOMETRIC_PRESENTATION_REPRESENTATION (  '', ( #30 ), #17 ) ;
#143 = AXIS2_PLACEMENT_3D ( 'NONE', #63, #11, #57 ) ;
#144 = CARTESIAN_POINT ( 'NONE',  ( 500.0000000000000000, -250.0000000000000000, 1.126944150315730100E-028 ) ) ;
#145 = LINE ( 'NONE', #65, #61 ) ;
#146 = ORIENTED_EDGE ( 'NONE', *, *, #173, .T. ) ;
#147 = APPLICATION_PROTOCOL_DEFINITION ( 'draft international standard', 'automotive_design', 1998, #180 ) ;
#148 =( NAMED_UNIT ( * ) SI_UNIT ( $, .STERADIAN. ) SOLID_ANGLE_UNIT ( ) );
#149 = FACE_OUTER_BOUND ( 'NONE', #140, .T. ) ;
#150 = PRODUCT_DEFINITION_CONTEXT ( 'detailed design', #86, 'design' ) ;
#151 = DIRECTION ( 'NONE',  ( 0.0000000000000000000, -0.0000000000000000000, -1.000000000000000000 ) ) ;
#152 = FACE_OUTER_BOUND ( 'NONE', #95, .T. ) ;
#153 = CARTESIAN_POINT ( 'NONE',  ( -7.105427357601000600E-014, 249.9999999999999700, 1.126944150315730100E-028 ) ) ;
#154 = DIRECTION ( 'NONE',  ( 0.0000000000000000000, -1.000000000000000000, 0.0000000000000000000 ) ) ;
#155 = MECHANICAL_DESIGN_GEOMETRIC_PRESENTATION_REPRESENTATION (  '', ( #35 ), #135 ) ;
#156 = ORIENTED_EDGE ( 'NONE', *, *, #66, .F. ) ;
#157 = CARTESIAN_POINT ( 'NONE',  ( -500.0000000000000000, -250.0000000000000000, 1.126944150315730100E-028 ) ) ;
#158 = PLANE ( 'NONE',  #187 ) ;
#159 = FILL_AREA_STYLE_COLOUR ( '', #72 ) ;
#160 = VECTOR ( 'NONE', #189, 1000.000000000000000 ) ;
#161 = DIRECTION ( 'NONE',  ( -0.0000000000000000000, 0.0000000000000000000, 1.000000000000000000 ) ) ;
#162 = CARTESIAN_POINT ( 'NONE',  ( 500.0000000000000000, 250.0000000000000000, 1.126944150315730100E-028 ) ) ;
#163 = ADVANCED_FACE ( 'NONE', ( #56 ), #96, .T. ) ;
#164 = SURFACE_STYLE_FILL_AREA ( #118 ) ;
#165 = FACE_OUTER_BOUND ( 'NONE', #62, .T. ) ;
#166 = ORIENTED_EDGE ( 'NONE', *, *, #198, .T. ) ;
#167 = ORIENTED_EDGE ( 'NONE', *, *, #3, .F. ) ;
#168 = VERTEX_POINT ( 'NONE', #196 ) ;
#169 = AXIS2_PLACEMENT_3D ( 'NONE', #181, #29, #133 ) ;
#170 = VECTOR ( 'NONE', #43, 1000.000000000000000 ) ;
#171 = CARTESIAN_POINT ( 'NONE',  ( -7.105427357601000600E-014, -250.0000000000000000, 1.126944150315730100E-028 ) ) ;
#172 = DIRECTION ( 'NONE',  ( 0.0000000000000000000, 1.000000000000000000, -0.0000000000000000000 ) ) ;
#173 = EDGE_CURVE ( 'NONE', #134, #13, #186, .T. ) ;
#174 = PRESENTATION_STYLE_ASSIGNMENT (( #31 ) ) ;
#175 = CARTESIAN_POINT ( 'NONE',  ( -500.0000000000000000, 250.0000000000000000, 1.126944150315730100E-028 ) ) ;
#176 = DIRECTION ( 'NONE',  ( -0.0000000000000000000, 1.000000000000000000, 0.0000000000000000000 ) ) ;
#177 = SHAPE_DEFINITION_REPRESENTATION ( #8, #42 ) ;
#178 = VECTOR ( 'NONE', #126, 1000.000000000000000 ) ;
#179 =( LENGTH_UNIT ( ) NAMED_UNIT ( * ) SI_UNIT ( .MILLI., .METRE. ) );
#180 = APPLICATION_CONTEXT ( 'automotive_design' ) ;
#181 = CARTESIAN_POINT ( 'NONE',  ( 0.0000000000000000000, 0.0000000000000000000, 0.0000000000000000000 ) ) ;
#182 = PRESENTATION_LAYER_ASSIGNMENT (  '', '', ( #35 ) ) ;
#183 = LINE ( 'NONE', #105, #26 ) ;
#184 = EDGE_CURVE ( 'NONE', #168, #99, #120, .T. ) ;
#185 = ORIENTED_EDGE ( 'NONE', *, *, #47, .T. ) ;
#186 = LINE ( 'NONE', #70, #2 ) ;
#187 = AXIS2_PLACEMENT_3D ( 'NONE', #115, #55, #131 ) ;
#188 = PLANE ( 'NONE',  #107 ) ;
#189 = DIRECTION ( 'NONE',  ( 0.0000000000000000000, -1.000000000000000000, -0.0000000000000000000 ) ) ;
#190 = ADVANCED_FACE ( 'NONE', ( #152 ), #158, .T. ) ;
#191 = DIRECTION ( 'NONE',  ( -0.0000000000000000000, -0.0000000000000000000, -1.000000000000000000 ) ) ;
#192 = CARTESIAN_POINT ( 'NONE',  ( 500.0000000000000000, 0.0000000000000000000, 15.00000000000000000 ) ) ;
#193 =( NAMED_UNIT ( * ) SI_UNIT ( $, .STERADIAN. ) SOLID_ANGLE_UNIT ( ) );
#194 = ORIENTED_EDGE ( 'NONE', *, *, #139, .F. ) ;
#195 =( LENGTH_UNIT ( ) NAMED_UNIT ( * ) SI_UNIT ( .MILLI., .METRE. ) );
#196 = CARTESIAN_POINT ( 'NONE',  ( 500.0000000000000000, 250.0000000000000000, 15.00000000000000000 ) ) ;
#197 = MANIFOLD_SOLID_BREP ( 'Importiert1', #37 ) ;
#198 = EDGE_CURVE ( 'NONE', #134, #99, #183, .T. ) ;
#199 = VECTOR ( 'NONE', #7, 1000.000000000000000 ) ;
#200 = ORIENTED_EDGE ( 'NONE', *, *, #198, .F. ) ;
#201 = PRODUCT_DEFINITION_FORMATION_WITH_SPECIFIED_SOURCE ( 'ANY', '', #114, .NOT_KNOWN. ) ;
#202 = SURFACE_STYLE_FILL_AREA ( #129 ) ;
ENDSEC;
END-ISO-10303-21;
