ISO-10303-21;
HEADER;
FILE_DESCRIPTION (( 'STEP AP214' ),
    '1' );
FILE_NAME ('6221606',
    '2019-02-04T09:02:50',
    ( '' ),
    ('JUGARD+KÜNSTNER GmbH'),
    'SwSTEP 2.0',
    'SolidWorks 2017',
    '' );
FILE_SCHEMA (( 'AUTOMOTIVE_DESIGN' ));
ENDSEC;

DATA;
#1 = ADVANCED_FACE ( 'NONE', ( #320, #197 ), #129, .F. ) ;
#2 =( GEOMETRIC_REPRESENTATION_CONTEXT ( 3 ) GLOBAL_UNCERTAINTY_ASSIGNED_CONTEXT ( ( #395 ) ) GLOBAL_UNIT_ASSIGNED_CONTEXT ( ( #247, #374, #341 ) ) REPRESENTATION_CONTEXT ( 'NONE', 'WORKASPACE' ) );
#3 = FILL_AREA_STYLE_COLOUR ( '', #212 ) ;
#4 = VECTOR ( 'NONE', #270, 1000.000000000000000 ) ;
#5 =( NAMED_UNIT ( * ) SI_UNIT ( $, .STERADIAN. ) SOLID_ANGLE_UNIT ( ) );
#6 = CARTESIAN_POINT ( 'NONE',  ( 3.000000000000000000, 0.0000000000000000000, 32.44398907103831000 ) ) ;
#7 = LINE ( 'NONE', #251, #233 ) ;
#8 = FILL_AREA_STYLE ('',( #3 ) ) ;
#9 = CIRCLE ( 'NONE', #56, 3.000000000000000000 ) ;
#10 = ORIENTED_EDGE ( 'NONE', *, *, #48, .F. ) ;
#11 = AXIS2_PLACEMENT_3D ( 'NONE', #237, #296, #54 ) ;
#12 = VECTOR ( 'NONE', #55, 1000.000000000000000 ) ;
#13 = DIRECTION ( 'NONE',  ( 1.000000000000000000, 0.0000000000000000000, 0.0000000000000000000 ) ) ;
#14 = FACE_OUTER_BOUND ( 'NONE', #311, .T. ) ;
#15 = CARTESIAN_POINT ( 'NONE',  ( -3.000000000000000000, 0.0000000000000000000, -0.5000000000000000000 ) ) ;
#16 = ORIENTED_EDGE ( 'NONE', *, *, #48, .T. ) ;
#17 = AXIS2_PLACEMENT_3D ( 'NONE', #50, #93, #269 ) ;
#18 = ORIENTED_EDGE ( 'NONE', *, *, #162, .F. ) ;
#19 = CARTESIAN_POINT ( 'NONE',  ( -2.499999999982494900, 3.367778697644620700E-016, -25.00000000003410600 ) ) ;
#20 = ORIENTED_EDGE ( 'NONE', *, *, #382, .F. ) ;
#21 = DIRECTION ( 'NONE',  ( -0.0000000000000000000, -0.0000000000000000000, -1.000000000000000000 ) ) ;
#22 = DIRECTION ( 'NONE',  ( 1.000000000000000000, 0.0000000000000000000, 0.0000000000000000000 ) ) ;
#23 = STYLED_ITEM ( 'NONE', ( #192 ), #114 ) ;
#24 = DIRECTION ( 'NONE',  ( 0.0000000000000000000, 0.0000000000000000000, 1.000000000000000000 ) ) ;
#25 = CYLINDRICAL_SURFACE ( 'NONE', #193, 3.000000000000000000 ) ;
#26 = VERTEX_POINT ( 'NONE', #292 ) ;
#27 = CARTESIAN_POINT ( 'NONE',  ( -3.000000000000000000, 3.673940397442059900E-016, 0.5000000000000004400 ) ) ;
#28 = CARTESIAN_POINT ( 'NONE',  ( -5.000000000000000000, 6.123233995736766300E-016, 32.44398907103831000 ) ) ;
#29 = MECHANICAL_DESIGN_GEOMETRIC_PRESENTATION_REPRESENTATION (  '', ( #187 ), #241 ) ;
#30 = FILL_AREA_STYLE ('',( #393 ) ) ;
#31 = ADVANCED_FACE ( 'NONE', ( #113 ), #305, .T. ) ;
#32 = MECHANICAL_DESIGN_GEOMETRIC_PRESENTATION_REPRESENTATION (  '', ( #23 ), #173 ) ;
#33 = SURFACE_STYLE_USAGE ( .BOTH. , #157 ) ;
#34 = ORIENTED_EDGE ( 'NONE', *, *, #276, .T. ) ;
#35 = DIRECTION ( 'NONE',  ( -1.000000000000000000, 0.0000000000000000000, 0.0000000000000000000 ) ) ;
#36 = PRODUCT_DEFINITION ( 'UNKNOWN', '', #86, #183 ) ;
#37 = EDGE_CURVE ( 'NONE', #257, #26, #191, .T. ) ;
#38 = SURFACE_STYLE_USAGE ( .BOTH. , #314 ) ;
#39 = ORIENTED_EDGE ( 'NONE', *, *, #228, .F. ) ;
#40 = ORIENTED_EDGE ( 'NONE', *, *, #120, .T. ) ;
#41 = AXIS2_PLACEMENT_3D ( 'NONE', #238, #91, #330 ) ;
#42 = CARTESIAN_POINT ( 'NONE',  ( -3.000000000000000000, 3.673940397442059900E-016, 32.44398907103831000 ) ) ;
#43 = CIRCLE ( 'NONE', #336, 5.000000000000000000 ) ;
#44 = EDGE_LOOP ( 'NONE', ( #301, #288 ) ) ;
#45 = DIRECTION ( 'NONE',  ( -1.000000000000000000, 0.0000000000000000000, -0.0000000000000000000 ) ) ;
#46 = PLANE ( 'NONE',  #17 ) ;
#47 = ORIENTED_EDGE ( 'NONE', *, *, #92, .F. ) ;
#48 = EDGE_CURVE ( 'NONE', #158, #170, #240, .T. ) ;
#49 = ORIENTED_EDGE ( 'NONE', *, *, #116, .T. ) ;
#50 = CARTESIAN_POINT ( 'NONE',  ( 9.992007221626410400E-015, 0.0000000000000000000, 25.00000000000000000 ) ) ;
#51 = DIRECTION ( 'NONE',  ( -0.0000000000000000000, -0.0000000000000000000, -1.000000000000000000 ) ) ;
#52 = PRESENTATION_STYLE_ASSIGNMENT (( #38 ) ) ;
#53 = CIRCLE ( 'NONE', #171, 3.000000000000000000 ) ;
#54 = DIRECTION ( 'NONE',  ( 1.000000000000000000, 0.0000000000000000000, 0.0000000000000000000 ) ) ;
#55 = DIRECTION ( 'NONE',  ( 0.0000000000000000000, 0.0000000000000000000, 1.000000000000000000 ) ) ;
#56 = AXIS2_PLACEMENT_3D ( 'NONE', #386, #80, #140 ) ;
#57 = CARTESIAN_POINT ( 'NONE',  ( 0.0000000000000000000, 0.0000000000000000000, 0.5000000000000004400 ) ) ;
#58 = ORIENTED_EDGE ( 'NONE', *, *, #69, .T. ) ;
#59 = CARTESIAN_POINT ( 'NONE',  ( -2.999999999929059400, 3.673940397355182600E-016, -24.13397459633870300 ) ) ;
#60 =( NAMED_UNIT ( * ) SI_UNIT ( $, .STERADIAN. ) SOLID_ANGLE_UNIT ( ) );
#61 = ADVANCED_FACE ( 'NONE', ( #76 ), #249, .T. ) ;
#62 = LINE ( 'NONE', #59, #75 ) ;
#63 = DIRECTION ( 'NONE',  ( 0.0000000000000000000, 0.0000000000000000000, 1.000000000000000000 ) ) ;
#64 = ORIENTED_EDGE ( 'NONE', *, *, #268, .T. ) ;
#65 = ADVANCED_FACE ( 'NONE', ( #161, #396 ), #255, .F. ) ;
#66 = CARTESIAN_POINT ( 'NONE',  ( -2.499999999973701000, 0.0000000000000000000, 24.99999999997726300 ) ) ;
#67 = CIRCLE ( 'NONE', #74, 5.000000000000000000 ) ;
#68 = VERTEX_POINT ( 'NONE', #167 ) ;
#69 = EDGE_CURVE ( 'NONE', #179, #337, #53, .T. ) ;
#70 = CONICAL_SURFACE ( 'NONE', #134, 2.999999999929059400, 0.5235987755965401100 ) ;
#71 = EDGE_LOOP ( 'NONE', ( #149, #376 ) ) ;
#72 = DIRECTION ( 'NONE',  ( 1.000000000000000000, 0.0000000000000000000, -0.0000000000000000000 ) ) ;
#73 = CARTESIAN_POINT ( 'NONE',  ( 5.000000000000000000, 0.0000000000000000000, 32.44398907103831000 ) ) ;
#74 = AXIS2_PLACEMENT_3D ( 'NONE', #263, #51, #264 ) ;
#75 = VECTOR ( 'NONE', #335, 1000.000000000000000 ) ;
#76 = FACE_OUTER_BOUND ( 'NONE', #347, .T. ) ;
#77 = ORIENTED_EDGE ( 'NONE', *, *, #120, .F. ) ;
#78 = DIRECTION ( 'NONE',  ( 0.0000000000000000000, 0.0000000000000000000, 1.000000000000000000 ) ) ;
#79 = DIRECTION ( 'NONE',  ( 0.0000000000000000000, 0.0000000000000000000, 1.000000000000000000 ) ) ;
#80 = DIRECTION ( 'NONE',  ( 0.0000000000000000000, 0.0000000000000000000, 1.000000000000000000 ) ) ;
#81 = DIRECTION ( 'NONE',  ( 1.000000000000000000, 0.0000000000000000000, -0.0000000000000000000 ) ) ;
#82 = FACE_OUTER_BOUND ( 'NONE', #345, .T. ) ;
#83 = AXIS2_PLACEMENT_3D ( 'NONE', #302, #236, #203 ) ;
#84 = EDGE_LOOP ( 'NONE', ( #372, #137, #103, #39 ) ) ;
#85 = CARTESIAN_POINT ( 'NONE',  ( 5.000000000000000000, 0.0000000000000000000, 0.5000000000000004400 ) ) ;
#86 = PRODUCT_DEFINITION_FORMATION_WITH_SPECIFIED_SOURCE ( 'ANY', '', #234, .NOT_KNOWN. ) ;
#87 = CARTESIAN_POINT ( 'NONE',  ( 2.499999999973701000, 3.367778697613754500E-016, 24.99999999997726300 ) ) ;
#88 = VECTOR ( 'NONE', #322, 1000.000000000000000 ) ;
#89 = DIRECTION ( 'NONE',  ( 0.0000000000000000000, 0.0000000000000000000, -1.000000000000000000 ) ) ;
#90 = ORIENTED_EDGE ( 'NONE', *, *, #189, .F. ) ;
#91 = DIRECTION ( 'NONE',  ( 0.0000000000000000000, -0.0000000000000000000, 1.000000000000000000 ) ) ;
#92 = EDGE_CURVE ( 'NONE', #257, #68, #375, .T. ) ;
#93 = DIRECTION ( 'NONE',  ( 0.0000000000000000000, 0.0000000000000000000, -1.000000000000000000 ) ) ;
#94 = CIRCLE ( 'NONE', #373, 5.000000000000000000 ) ;
#95 = VERTEX_POINT ( 'NONE', #229 ) ;
#96 = DIRECTION ( 'NONE',  ( 1.000000000000000000, 0.0000000000000000000, 0.0000000000000000000 ) ) ;
#97 =( LENGTH_UNIT ( ) NAMED_UNIT ( * ) SI_UNIT ( .MILLI., .METRE. ) );
#98 = CARTESIAN_POINT ( 'NONE',  ( 0.0000000000000000000, 0.0000000000000000000, 0.0000000000000000000 ) ) ;
#99 = ORIENTED_EDGE ( 'NONE', *, *, #204, .T. ) ;
#100 = ORIENTED_EDGE ( 'NONE', *, *, #254, .T. ) ;
#101 = AXIS2_PLACEMENT_3D ( 'NONE', #208, #150, #273 ) ;
#102 = VECTOR ( 'NONE', #213, 1000.000000000000000 ) ;
#103 = ORIENTED_EDGE ( 'NONE', *, *, #107, .T. ) ;
#104 = AXIS2_PLACEMENT_3D ( 'NONE', #260, #357, #176 ) ;
#105 = EDGE_LOOP ( 'NONE', ( #196, #115, #398, #77 ) ) ;
#106 = DIRECTION ( 'NONE',  ( 1.000000000000000000, 0.0000000000000000000, 0.0000000000000000000 ) ) ;
#107 = EDGE_CURVE ( 'NONE', #26, #267, #323, .T. ) ;
#108 = LINE ( 'NONE', #388, #142 ) ;
#109 = CARTESIAN_POINT ( 'NONE',  ( 9.992007221626410400E-015, 0.0000000000000000000, -25.00000000000000000 ) ) ;
#110 = CARTESIAN_POINT ( 'NONE',  ( -3.000000000000193200, 3.673940397442296000E-016, -24.13397459621549500 ) ) ;
#111 = CARTESIAN_POINT ( 'NONE',  ( 0.0000000000000000000, 0.0000000000000000000, 24.13397459616817300 ) ) ;
#112 = CONICAL_SURFACE ( 'NONE', #200, 2.999999999985902800, 0.5235987755965401100 ) ;
#113 = FACE_OUTER_BOUND ( 'NONE', #84, .T. ) ;
#114 = ADVANCED_BREP_SHAPE_REPRESENTATION ( '6221606_CNAJF00', ( #329, #242 ), #2 ) ;
#115 = ORIENTED_EDGE ( 'NONE', *, *, #283, .T. ) ;
#116 = EDGE_CURVE ( 'NONE', #337, #179, #9, .T. ) ;
#117 = ORIENTED_EDGE ( 'NONE', *, *, #276, .F. ) ;
#118 = EDGE_LOOP ( 'NONE', ( #90, #126 ) ) ;
#119 = ADVANCED_FACE ( 'NONE', ( #169 ), #299, .F. ) ;
#120 = EDGE_CURVE ( 'NONE', #267, #26, #223, .T. ) ;
#121 = DIRECTION ( 'NONE',  ( 1.000000000000000000, 0.0000000000000000000, 0.0000000000000000000 ) ) ;
#122 = VERTEX_POINT ( 'NONE', #19 ) ;
#123 = EDGE_CURVE ( 'NONE', #206, #170, #67, .T. ) ;
#124 = CARTESIAN_POINT ( 'NONE',  ( 0.0000000000000000000, 0.0000000000000000000, -25.00000000003410600 ) ) ;
#125 = CIRCLE ( 'NONE', #252, 5.000000000000000000 ) ;
#126 = ORIENTED_EDGE ( 'NONE', *, *, #268, .F. ) ;
#127 = EDGE_CURVE ( 'NONE', #170, #206, #125, .T. ) ;
#128 = DIRECTION ( 'NONE',  ( 0.0000000000000000000, 0.0000000000000000000, 1.000000000000000000 ) ) ;
#129 = PLANE ( 'NONE',  #215 ) ;
#130 = COLOUR_RGB ( '',0.7529411764705882200, 0.7529411764705882200, 0.8117647058823529400 ) ;
#131 = EDGE_LOOP ( 'NONE', ( #227, #34, #280, #10 ) ) ;
#132 = DIRECTION ( 'NONE',  ( 0.0000000000000000000, 0.0000000000000000000, 1.000000000000000000 ) ) ;
#133 = DIRECTION ( 'NONE',  ( 1.000000000000000000, 0.0000000000000000000, 0.0000000000000000000 ) ) ;
#134 = AXIS2_PLACEMENT_3D ( 'NONE', #209, #210, #368 ) ;
#135 = CARTESIAN_POINT ( 'NONE',  ( 2.499999999982494900, 0.0000000000000000000, -25.00000000003410600 ) ) ;
#136 = ORIENTED_EDGE ( 'NONE', *, *, #384, .T. ) ;
#137 = ORIENTED_EDGE ( 'NONE', *, *, #37, .T. ) ;
#138 = CARTESIAN_POINT ( 'NONE',  ( 0.0000000000000000000, 0.0000000000000000000, 32.44398907103831000 ) ) ;
#139 = DIRECTION ( 'NONE',  ( 1.000000000000000000, 0.0000000000000000000, 0.0000000000000000000 ) ) ;
#140 = DIRECTION ( 'NONE',  ( 1.000000000000000000, 0.0000000000000000000, 0.0000000000000000000 ) ) ;
#141 = AXIS2_PLACEMENT_3D ( 'NONE', #289, #132, #199 ) ;
#142 = VECTOR ( 'NONE', #231, 1000.000000000000000 ) ;
#143 = ORIENTED_EDGE ( 'NONE', *, *, #346, .T. ) ;
#144 = AXIS2_PLACEMENT_3D ( 'NONE', #198, #383, #385 ) ;
#145 = CARTESIAN_POINT ( 'NONE',  ( 0.0000000000000000000, 0.0000000000000000000, -0.5000000000000004400 ) ) ;
#146 = CARTESIAN_POINT ( 'NONE',  ( -3.000000000000000000, 3.673940397442059900E-016, -0.5000000000000004400 ) ) ;
#147 = CARTESIAN_POINT ( 'NONE',  ( 2.999999999958578900, 3.673940397391333200E-016, 24.13397459621549900 ) ) ;
#148 = ORIENTED_EDGE ( 'NONE', *, *, #107, .F. ) ;
#149 = ORIENTED_EDGE ( 'NONE', *, *, #127, .F. ) ;
#150 = DIRECTION ( 'NONE',  ( -0.0000000000000000000, -0.0000000000000000000, -1.000000000000000000 ) ) ;
#151 = EDGE_CURVE ( 'NONE', #355, #26, #108, .T. ) ;
#152 = DIRECTION ( 'NONE',  ( 0.0000000000000000000, 0.0000000000000000000, 1.000000000000000000 ) ) ;
#153 = ADVANCED_FACE ( 'NONE', ( #256 ), #25, .T. ) ;
#154 = APPLICATION_CONTEXT ( 'automotive_design' ) ;
#155 = SHAPE_DEFINITION_REPRESENTATION ( #278, #114 ) ;
#156 = CIRCLE ( 'NONE', #377, 2.499999999982494900 ) ;
#157 = SURFACE_SIDE_STYLE ('',( #304 ) ) ;
#158 = VERTEX_POINT ( 'NONE', #265 ) ;
#159 = APPLICATION_CONTEXT ( 'automotive_design' ) ;
#160 = FACE_OUTER_BOUND ( 'NONE', #131, .T. ) ;
#161 = FACE_BOUND ( 'NONE', #356, .T. ) ;
#162 = EDGE_CURVE ( 'NONE', #355, #224, #164, .T. ) ;
#163 = ORIENTED_EDGE ( 'NONE', *, *, #204, .F. ) ;
#164 = CIRCLE ( 'NONE', #363, 2.499999999973701000 ) ;
#165 = AXIS2_PLACEMENT_3D ( 'NONE', #109, #328, #81 ) ;
#166 = PRESENTATION_LAYER_ASSIGNMENT (  '', '', ( #187 ) ) ;
#167 = CARTESIAN_POINT ( 'NONE',  ( 3.000000000000000000, 0.0000000000000000000, 0.5000000000000004400 ) ) ;
#168 = CYLINDRICAL_SURFACE ( 'NONE', #297, 5.000000000000000000 ) ;
#169 = FACE_OUTER_BOUND ( 'NONE', #44, .T. ) ;
#170 = VERTEX_POINT ( 'NONE', #85 ) ;
#171 = AXIS2_PLACEMENT_3D ( 'NONE', #348, #378, #13 ) ;
#172 = FACE_OUTER_BOUND ( 'NONE', #360, .T. ) ;
#173 =( GEOMETRIC_REPRESENTATION_CONTEXT ( 3 ) GLOBAL_UNCERTAINTY_ASSIGNED_CONTEXT ( ( #245 ) ) GLOBAL_UNIT_ASSIGNED_CONTEXT ( ( #188, #281, #5 ) ) REPRESENTATION_CONTEXT ( 'NONE', 'WORKASPACE' ) );
#174 = DIRECTION ( 'NONE',  ( 0.0000000000000000000, 0.0000000000000000000, 1.000000000000000000 ) ) ;
#175 = DIRECTION ( 'NONE',  ( 0.0000000000000000000, 0.0000000000000000000, -1.000000000000000000 ) ) ;
#176 = DIRECTION ( 'NONE',  ( 1.000000000000000000, 0.0000000000000000000, 0.0000000000000000000 ) ) ;
#177 = CYLINDRICAL_SURFACE ( 'NONE', #11, 5.000000000000000000 ) ;
#178 = ORIENTED_EDGE ( 'NONE', *, *, #290, .T. ) ;
#179 = VERTEX_POINT ( 'NONE', #110 ) ;
#180 = AXIS2_PLACEMENT_3D ( 'NONE', #361, #89, #306 ) ;
#181 = DIRECTION ( 'NONE',  ( 0.0000000000000000000, 0.0000000000000000000, 1.000000000000000000 ) ) ;
#182 = DIRECTION ( 'NONE',  ( 0.0000000000000000000, 0.0000000000000000000, 1.000000000000000000 ) ) ;
#183 = PRODUCT_DEFINITION_CONTEXT ( 'detailed design', #154, 'design' ) ;
#184 = VERTEX_POINT ( 'NONE', #135 ) ;
#185 = DIRECTION ( 'NONE',  ( 0.0000000000000000000, 0.0000000000000000000, 1.000000000000000000 ) ) ;
#186 = ADVANCED_FACE ( 'NONE', ( #160 ), #177, .T. ) ;
#187 = STYLED_ITEM ( 'NONE', ( #52 ), #329 ) ;
#188 =( LENGTH_UNIT ( ) NAMED_UNIT ( * ) SI_UNIT ( .MILLI., .METRE. ) );
#189 = EDGE_CURVE ( 'NONE', #158, #244, #94, .T. ) ;
#190 = CARTESIAN_POINT ( 'NONE',  ( 0.0000000000000000000, 0.0000000000000000000, 32.44398907103831000 ) ) ;
#191 = LINE ( 'NONE', #42, #332 ) ;
#192 = PRESENTATION_STYLE_ASSIGNMENT (( #33 ) ) ;
#193 = AXIS2_PLACEMENT_3D ( 'NONE', #138, #174, #22 ) ;
#194 = EDGE_LOOP ( 'NONE', ( #235, #47 ) ) ;
#195 = DIRECTION ( 'NONE',  ( 0.0000000000000000000, 0.0000000000000000000, -1.000000000000000000 ) ) ;
#196 = ORIENTED_EDGE ( 'NONE', *, *, #313, .F. ) ;
#197 = FACE_OUTER_BOUND ( 'NONE', #71, .T. ) ;
#198 = CARTESIAN_POINT ( 'NONE',  ( 0.0000000000000000000, 0.0000000000000000000, 32.44398907103831000 ) ) ;
#199 = DIRECTION ( 'NONE',  ( 1.000000000000000000, 0.0000000000000000000, 0.0000000000000000000 ) ) ;
#200 = AXIS2_PLACEMENT_3D ( 'NONE', #111, #239, #216 ) ;
#201 = EDGE_LOOP ( 'NONE', ( #18, #343 ) ) ;
#202 = CARTESIAN_POINT ( 'NONE',  ( -5.000000000000000000, 6.123233995736766300E-016, 0.5000000000000004400 ) ) ;
#203 = DIRECTION ( 'NONE',  ( 1.000000000000000000, 0.0000000000000000000, 0.0000000000000000000 ) ) ;
#204 = EDGE_CURVE ( 'NONE', #359, #95, #389, .T. ) ;
#205 = VECTOR ( 'NONE', #63, 1000.000000000000000 ) ;
#206 = VERTEX_POINT ( 'NONE', #202 ) ;
#207 = EDGE_CURVE ( 'NONE', #68, #257, #315, .T. ) ;
#208 = CARTESIAN_POINT ( 'NONE',  ( 0.0000000000000000000, 0.0000000000000000000, -0.5000000000000004400 ) ) ;
#209 = CARTESIAN_POINT ( 'NONE',  ( 0.0000000000000000000, 0.0000000000000000000, -24.13397459633870300 ) ) ;
#210 = DIRECTION ( 'NONE',  ( 0.0000000000000000000, -0.0000000000000000000, 1.000000000000000000 ) ) ;
#211 = ADVANCED_FACE ( 'NONE', ( #379 ), #46, .F. ) ;
#212 = COLOUR_RGB ( '',0.7529411764705882200, 0.7529411764705882200, 0.7529411764705882200 ) ;
#213 = DIRECTION ( 'NONE',  ( 0.0000000000000000000, 0.0000000000000000000, 1.000000000000000000 ) ) ;
#214 = ORIENTED_EDGE ( 'NONE', *, *, #382, .T. ) ;
#215 = AXIS2_PLACEMENT_3D ( 'NONE', #380, #195, #45 ) ;
#216 = DIRECTION ( 'NONE',  ( -1.000000000000000000, 0.0000000000000000000, 0.0000000000000000000 ) ) ;
#217 = DIRECTION ( 'NONE',  ( 0.0000000000000000000, -0.0000000000000000000, 1.000000000000000000 ) ) ;
#218 = VECTOR ( 'NONE', #182, 1000.000000000000000 ) ;
#219 = EDGE_LOOP ( 'NONE', ( #381, #317, #148, #293 ) ) ;
#220 = ADVANCED_FACE ( 'NONE', ( #82 ), #319, .T. ) ;
#221 = DIRECTION ( 'NONE',  ( 0.0000000000000000000, -0.0000000000000000000, 1.000000000000000000 ) ) ;
#222 = EDGE_CURVE ( 'NONE', #95, #359, #300, .T. ) ;
#223 = CIRCLE ( 'NONE', #83, 3.000000000000000000 ) ;
#224 = VERTEX_POINT ( 'NONE', #87 ) ;
#225 = CARTESIAN_POINT ( 'NONE',  ( 0.0000000000000000000, 0.0000000000000000000, 0.5000000000000004400 ) ) ;
#226 = LINE ( 'NONE', #364, #12 ) ;
#227 = ORIENTED_EDGE ( 'NONE', *, *, #189, .T. ) ;
#228 = EDGE_CURVE ( 'NONE', #68, #267, #287, .T. ) ;
#229 = CARTESIAN_POINT ( 'NONE',  ( 3.000000000000000000, 0.0000000000000000000, -0.5000000000000004400 ) ) ;
#230 = EDGE_LOOP ( 'NONE', ( #284, #58, #143, #390 ) ) ;
#231 = DIRECTION ( 'NONE',  ( -0.4999999999984768900, 0.0000000000000000000, -0.8660254037853180000 ) ) ;
#232 = AXIS2_PLACEMENT_3D ( 'NONE', #15, #128, #72 ) ;
#233 = VECTOR ( 'NONE', #338, 1000.000000000000000 ) ;
#234 = PRODUCT ( '6221606_CNAJF00', '6221606_CNAJF00', '', ( #369 ) ) ;
#235 = ORIENTED_EDGE ( 'NONE', *, *, #207, .F. ) ;
#236 = DIRECTION ( 'NONE',  ( -0.0000000000000000000, -0.0000000000000000000, -1.000000000000000000 ) ) ;
#237 = CARTESIAN_POINT ( 'NONE',  ( 0.0000000000000000000, 0.0000000000000000000, 32.44398907103831000 ) ) ;
#238 = CARTESIAN_POINT ( 'NONE',  ( 0.0000000000000000000, 0.0000000000000000000, -25.00000000003410600 ) ) ;
#239 = DIRECTION ( 'NONE',  ( 0.0000000000000000000, 0.0000000000000000000, -1.000000000000000000 ) ) ;
#240 = LINE ( 'NONE', #73, #88 ) ;
#241 =( GEOMETRIC_REPRESENTATION_CONTEXT ( 3 ) GLOBAL_UNCERTAINTY_ASSIGNED_CONTEXT ( ( #340 ) ) GLOBAL_UNIT_ASSIGNED_CONTEXT ( ( #97, #339, #60 ) ) REPRESENTATION_CONTEXT ( 'NONE', 'WORKASPACE' ) );
#242 = AXIS2_PLACEMENT_3D ( 'NONE', #98, #312, #371 ) ;
#243 = APPLICATION_PROTOCOL_DEFINITION ( 'draft international standard', 'automotive_design', 1998, #159 ) ;
#244 = VERTEX_POINT ( 'NONE', #400 ) ;
#245 = UNCERTAINTY_MEASURE_WITH_UNIT (LENGTH_MEASURE( 1.000000000000000100E-005 ), #188, 'distance_accuracy_value', 'NONE');
#246 = CARTESIAN_POINT ( 'NONE',  ( 3.000000000000193200, 0.0000000000000000000, -24.13397459621549500 ) ) ;
#247 =( LENGTH_UNIT ( ) NAMED_UNIT ( * ) SI_UNIT ( .MILLI., .METRE. ) );
#248 = AXIS2_PLACEMENT_3D ( 'NONE', #57, #181, #392 ) ;
#249 = CYLINDRICAL_SURFACE ( 'NONE', #141, 3.000000000000000000 ) ;
#250 = CLOSED_SHELL ( 'NONE', ( #31, #310, #186, #220, #367, #61, #344, #1, #211, #334, #65, #153, #274, #119 ) ) ;
#251 = CARTESIAN_POINT ( 'NONE',  ( 2.999999999929059400, 0.0000000000000000000, -24.13397459633870300 ) ) ;
#252 = AXIS2_PLACEMENT_3D ( 'NONE', #298, #21, #139 ) ;
#253 = SURFACE_STYLE_FILL_AREA ( #30 ) ;
#254 = EDGE_CURVE ( 'NONE', #179, #359, #226, .T. ) ;
#255 = PLANE ( 'NONE',  #232 ) ;
#256 = FACE_OUTER_BOUND ( 'NONE', #230, .T. ) ;
#257 = VERTEX_POINT ( 'NONE', #27 ) ;
#258 = AXIS2_PLACEMENT_3D ( 'NONE', #275, #370, #35 ) ;
#259 = CARTESIAN_POINT ( 'NONE',  ( 0.0000000000000000000, 0.0000000000000000000, -0.5000000000000004400 ) ) ;
#260 = CARTESIAN_POINT ( 'NONE',  ( 0.0000000000000000000, 0.0000000000000000000, -0.5000000000000004400 ) ) ;
#261 = LINE ( 'NONE', #6, #205 ) ;
#262 = ORIENTED_EDGE ( 'NONE', *, *, #326, .T. ) ;
#263 = CARTESIAN_POINT ( 'NONE',  ( 0.0000000000000000000, 0.0000000000000000000, 0.5000000000000004400 ) ) ;
#264 = DIRECTION ( 'NONE',  ( 1.000000000000000000, 0.0000000000000000000, 0.0000000000000000000 ) ) ;
#265 = CARTESIAN_POINT ( 'NONE',  ( 5.000000000000000000, 0.0000000000000000000, -0.5000000000000004400 ) ) ;
#266 = LINE ( 'NONE', #28, #102 ) ;
#267 = VERTEX_POINT ( 'NONE', #147 ) ;
#268 = EDGE_CURVE ( 'NONE', #244, #158, #43, .T. ) ;
#269 = DIRECTION ( 'NONE',  ( -1.000000000000000000, 0.0000000000000000000, -0.0000000000000000000 ) ) ;
#270 = DIRECTION ( 'NONE',  ( 0.4999999999984768900, 6.123233995718113200E-017, -0.8660254037853180000 ) ) ;
#271 = EDGE_LOOP ( 'NONE', ( #136, #262, #350, #20 ) ) ;
#272 = AXIS2_PLACEMENT_3D ( 'NONE', #308, #217, #121 ) ;
#273 = DIRECTION ( 'NONE',  ( 1.000000000000000000, 0.0000000000000000000, 0.0000000000000000000 ) ) ;
#274 = ADVANCED_FACE ( 'NONE', ( #172 ), #70, .T. ) ;
#275 = CARTESIAN_POINT ( 'NONE',  ( 0.0000000000000000000, 0.0000000000000000000, 24.13397459616817300 ) ) ;
#276 = EDGE_CURVE ( 'NONE', #244, #206, #266, .T. ) ;
#277 = FACE_OUTER_BOUND ( 'NONE', #219, .T. ) ;
#278 = PRODUCT_DEFINITION_SHAPE ( 'NONE', 'NONE',  #36 ) ;
#279 = ORIENTED_EDGE ( 'NONE', *, *, #127, .T. ) ;
#280 = ORIENTED_EDGE ( 'NONE', *, *, #123, .T. ) ;
#281 =( NAMED_UNIT ( * ) PLANE_ANGLE_UNIT ( ) SI_UNIT ( $, .RADIAN. ) );
#282 = DIRECTION ( 'NONE',  ( 1.000000000000000000, 0.0000000000000000000, 0.0000000000000000000 ) ) ;
#283 = EDGE_CURVE ( 'NONE', #224, #355, #309, .T. ) ;
#284 = ORIENTED_EDGE ( 'NONE', *, *, #254, .F. ) ;
#285 = ORIENTED_EDGE ( 'NONE', *, *, #228, .T. ) ;
#286 = PRESENTATION_LAYER_ASSIGNMENT (  '', '', ( #23 ) ) ;
#287 = LINE ( 'NONE', #303, #218 ) ;
#288 = ORIENTED_EDGE ( 'NONE', *, *, #290, .F. ) ;
#289 = CARTESIAN_POINT ( 'NONE',  ( 0.0000000000000000000, 0.0000000000000000000, 32.44398907103831000 ) ) ;
#290 = EDGE_CURVE ( 'NONE', #122, #184, #342, .T. ) ;
#291 = DIRECTION ( 'NONE',  ( 0.0000000000000000000, 0.0000000000000000000, 1.000000000000000000 ) ) ;
#292 = CARTESIAN_POINT ( 'NONE',  ( -2.999999999958578900, 0.0000000000000000000, 24.13397459621549900 ) ) ;
#293 = ORIENTED_EDGE ( 'NONE', *, *, #151, .F. ) ;
#294 = ORIENTED_EDGE ( 'NONE', *, *, #326, .F. ) ;
#295 = CARTESIAN_POINT ( 'NONE',  ( 0.0000000000000000000, 0.0000000000000000000, 24.99999999997726300 ) ) ;
#296 = DIRECTION ( 'NONE',  ( 0.0000000000000000000, 0.0000000000000000000, 1.000000000000000000 ) ) ;
#297 = AXIS2_PLACEMENT_3D ( 'NONE', #190, #185, #96 ) ;
#298 = CARTESIAN_POINT ( 'NONE',  ( 0.0000000000000000000, 0.0000000000000000000, 0.5000000000000004400 ) ) ;
#299 = PLANE ( 'NONE',  #165 ) ;
#300 = CIRCLE ( 'NONE', #101, 3.000000000000000000 ) ;
#301 = ORIENTED_EDGE ( 'NONE', *, *, #384, .F. ) ;
#302 = CARTESIAN_POINT ( 'NONE',  ( 0.0000000000000000000, 0.0000000000000000000, 24.13397459621549900 ) ) ;
#303 = CARTESIAN_POINT ( 'NONE',  ( 3.000000000000000000, 0.0000000000000000000, 32.44398907103831000 ) ) ;
#304 = SURFACE_STYLE_FILL_AREA ( #8 ) ;
#305 = CYLINDRICAL_SURFACE ( 'NONE', #144, 3.000000000000000000 ) ;
#306 = DIRECTION ( 'NONE',  ( -1.000000000000000000, 0.0000000000000000000, 0.0000000000000000000 ) ) ;
#307 = APPLICATION_PROTOCOL_DEFINITION ( 'draft international standard', 'automotive_design', 1998, #154 ) ;
#308 = CARTESIAN_POINT ( 'NONE',  ( 0.0000000000000000000, 0.0000000000000000000, -24.13397459633870300 ) ) ;
#309 = CIRCLE ( 'NONE', #180, 2.499999999973701000 ) ;
#310 = ADVANCED_FACE ( 'NONE', ( #277 ), #112, .T. ) ;
#311 = EDGE_LOOP ( 'NONE', ( #117, #64, #16, #279 ) ) ;
#312 = DIRECTION ( 'NONE',  ( 0.0000000000000000000, 0.0000000000000000000, 1.000000000000000000 ) ) ;
#313 = EDGE_CURVE ( 'NONE', #224, #267, #394, .T. ) ;
#314 = SURFACE_SIDE_STYLE ('',( #253 ) ) ;
#315 = CIRCLE ( 'NONE', #248, 3.000000000000000000 ) ;
#316 = ORIENTED_EDGE ( 'NONE', *, *, #37, .F. ) ;
#317 = ORIENTED_EDGE ( 'NONE', *, *, #313, .T. ) ;
#318 = AXIS2_PLACEMENT_3D ( 'NONE', #225, #291, #133 ) ;
#319 = CYLINDRICAL_SURFACE ( 'NONE', #387, 3.000000000000000000 ) ;
#320 = FACE_BOUND ( 'NONE', #194, .T. ) ;
#321 = PRODUCT_RELATED_PRODUCT_CATEGORY ( 'part', '', ( #234 ) ) ;
#322 = DIRECTION ( 'NONE',  ( 0.0000000000000000000, 0.0000000000000000000, 1.000000000000000000 ) ) ;
#323 = CIRCLE ( 'NONE', #352, 3.000000000000000000 ) ;
#324 = ORIENTED_EDGE ( 'NONE', *, *, #346, .F. ) ;
#325 = DIRECTION ( 'NONE',  ( -0.0000000000000000000, -0.0000000000000000000, -1.000000000000000000 ) ) ;
#326 = EDGE_CURVE ( 'NONE', #122, #179, #62, .T. ) ;
#327 = FACE_OUTER_BOUND ( 'NONE', #271, .T. ) ;
#328 = DIRECTION ( 'NONE',  ( 0.0000000000000000000, 0.0000000000000000000, 1.000000000000000000 ) ) ;
#329 = MANIFOLD_SOLID_BREP ( 'Importiert1', #250 ) ;
#330 = DIRECTION ( 'NONE',  ( 1.000000000000000000, 0.0000000000000000000, 0.0000000000000000000 ) ) ;
#331 = CONICAL_SURFACE ( 'NONE', #258, 2.999999999985902800, 0.5235987755965401100 ) ;
#332 = VECTOR ( 'NONE', #78, 1000.000000000000000 ) ;
#333 = DIRECTION ( 'NONE',  ( 1.000000000000000000, 0.0000000000000000000, 0.0000000000000000000 ) ) ;
#334 = ADVANCED_FACE ( 'NONE', ( #14 ), #168, .T. ) ;
#335 = DIRECTION ( 'NONE',  ( -0.4999999999984768900, 6.123233995718113200E-017, 0.8660254037853180000 ) ) ;
#336 = AXIS2_PLACEMENT_3D ( 'NONE', #145, #24, #399 ) ;
#337 = VERTEX_POINT ( 'NONE', #246 ) ;
#338 = DIRECTION ( 'NONE',  ( 0.4999999999984768900, 0.0000000000000000000, 0.8660254037853180000 ) ) ;
#339 =( NAMED_UNIT ( * ) PLANE_ANGLE_UNIT ( ) SI_UNIT ( $, .RADIAN. ) );
#340 = UNCERTAINTY_MEASURE_WITH_UNIT (LENGTH_MEASURE( 1.000000000000000100E-005 ), #97, 'distance_accuracy_value', 'NONE');
#341 =( NAMED_UNIT ( * ) SI_UNIT ( $, .STERADIAN. ) SOLID_ANGLE_UNIT ( ) );
#342 = CIRCLE ( 'NONE', #41, 2.499999999982494900 ) ;
#343 = ORIENTED_EDGE ( 'NONE', *, *, #283, .F. ) ;
#344 = ADVANCED_FACE ( 'NONE', ( #358 ), #331, .T. ) ;
#345 = EDGE_LOOP ( 'NONE', ( #49, #100, #99, #324 ) ) ;
#346 = EDGE_CURVE ( 'NONE', #337, #95, #261, .T. ) ;
#347 = EDGE_LOOP ( 'NONE', ( #316, #365, #285, #40 ) ) ;
#348 = CARTESIAN_POINT ( 'NONE',  ( 0.0000000000000000000, 0.0000000000000000000, -24.13397459621549500 ) ) ;
#349 = CONICAL_SURFACE ( 'NONE', #272, 2.999999999929059400, 0.5235987755965401100 ) ;
#350 = ORIENTED_EDGE ( 'NONE', *, *, #116, .F. ) ;
#351 = ORIENTED_EDGE ( 'NONE', *, *, #222, .F. ) ;
#352 = AXIS2_PLACEMENT_3D ( 'NONE', #353, #325, #354 ) ;
#353 = CARTESIAN_POINT ( 'NONE',  ( 0.0000000000000000000, 0.0000000000000000000, 24.13397459621549900 ) ) ;
#354 = DIRECTION ( 'NONE',  ( 1.000000000000000000, 0.0000000000000000000, 0.0000000000000000000 ) ) ;
#355 = VERTEX_POINT ( 'NONE', #66 ) ;
#356 = EDGE_LOOP ( 'NONE', ( #351, #163 ) ) ;
#357 = DIRECTION ( 'NONE',  ( -0.0000000000000000000, -0.0000000000000000000, -1.000000000000000000 ) ) ;
#358 = FACE_OUTER_BOUND ( 'NONE', #105, .T. ) ;
#359 = VERTEX_POINT ( 'NONE', #146 ) ;
#360 = EDGE_LOOP ( 'NONE', ( #294, #178, #214, #366 ) ) ;
#361 = CARTESIAN_POINT ( 'NONE',  ( 0.0000000000000000000, 0.0000000000000000000, 24.99999999997726300 ) ) ;
#362 = CARTESIAN_POINT ( 'NONE',  ( 2.999999999985902800, 3.673940397424795600E-016, 24.13397459616817300 ) ) ;
#363 = AXIS2_PLACEMENT_3D ( 'NONE', #295, #175, #391 ) ;
#364 = CARTESIAN_POINT ( 'NONE',  ( -3.000000000000000000, 3.673940397442059900E-016, 32.44398907103831000 ) ) ;
#365 = ORIENTED_EDGE ( 'NONE', *, *, #92, .T. ) ;
#366 = ORIENTED_EDGE ( 'NONE', *, *, #69, .F. ) ;
#367 = ADVANCED_FACE ( 'NONE', ( #327 ), #349, .T. ) ;
#368 = DIRECTION ( 'NONE',  ( 1.000000000000000000, 0.0000000000000000000, 0.0000000000000000000 ) ) ;
#369 = PRODUCT_CONTEXT ( 'NONE', #159, 'mechanical' ) ;
#370 = DIRECTION ( 'NONE',  ( 0.0000000000000000000, 0.0000000000000000000, -1.000000000000000000 ) ) ;
#371 = DIRECTION ( 'NONE',  ( 1.000000000000000000, 0.0000000000000000000, 0.0000000000000000000 ) ) ;
#372 = ORIENTED_EDGE ( 'NONE', *, *, #207, .T. ) ;
#373 = AXIS2_PLACEMENT_3D ( 'NONE', #259, #79, #106 ) ;
#374 =( NAMED_UNIT ( * ) PLANE_ANGLE_UNIT ( ) SI_UNIT ( $, .RADIAN. ) );
#375 = CIRCLE ( 'NONE', #318, 3.000000000000000000 ) ;
#376 = ORIENTED_EDGE ( 'NONE', *, *, #123, .F. ) ;
#377 = AXIS2_PLACEMENT_3D ( 'NONE', #124, #221, #282 ) ;
#378 = DIRECTION ( 'NONE',  ( 0.0000000000000000000, 0.0000000000000000000, 1.000000000000000000 ) ) ;
#379 = FACE_OUTER_BOUND ( 'NONE', #201, .T. ) ;
#380 = CARTESIAN_POINT ( 'NONE',  ( -5.000000000000000000, 0.0000000000000000000, 0.5000000000000000000 ) ) ;
#381 = ORIENTED_EDGE ( 'NONE', *, *, #162, .T. ) ;
#382 = EDGE_CURVE ( 'NONE', #184, #337, #7, .T. ) ;
#383 = DIRECTION ( 'NONE',  ( 0.0000000000000000000, 0.0000000000000000000, 1.000000000000000000 ) ) ;
#384 = EDGE_CURVE ( 'NONE', #184, #122, #156, .T. ) ;
#385 = DIRECTION ( 'NONE',  ( 1.000000000000000000, 0.0000000000000000000, 0.0000000000000000000 ) ) ;
#386 = CARTESIAN_POINT ( 'NONE',  ( 0.0000000000000000000, 0.0000000000000000000, -24.13397459621549500 ) ) ;
#387 = AXIS2_PLACEMENT_3D ( 'NONE', #397, #152, #333 ) ;
#388 = CARTESIAN_POINT ( 'NONE',  ( -2.999999999985902800, 0.0000000000000000000, 24.13397459616817300 ) ) ;
#389 = CIRCLE ( 'NONE', #104, 3.000000000000000000 ) ;
#390 = ORIENTED_EDGE ( 'NONE', *, *, #222, .T. ) ;
#391 = DIRECTION ( 'NONE',  ( -1.000000000000000000, 0.0000000000000000000, 0.0000000000000000000 ) ) ;
#392 = DIRECTION ( 'NONE',  ( 1.000000000000000000, 0.0000000000000000000, 0.0000000000000000000 ) ) ;
#393 = FILL_AREA_STYLE_COLOUR ( '', #130 ) ;
#394 = LINE ( 'NONE', #362, #4 ) ;
#395 = UNCERTAINTY_MEASURE_WITH_UNIT (LENGTH_MEASURE( 1.000000000000000100E-005 ), #247, 'distance_accuracy_value', 'NONE');
#396 = FACE_OUTER_BOUND ( 'NONE', #118, .T. ) ;
#397 = CARTESIAN_POINT ( 'NONE',  ( 0.0000000000000000000, 0.0000000000000000000, 32.44398907103831000 ) ) ;
#398 = ORIENTED_EDGE ( 'NONE', *, *, #151, .T. ) ;
#399 = DIRECTION ( 'NONE',  ( 1.000000000000000000, 0.0000000000000000000, 0.0000000000000000000 ) ) ;
#400 = CARTESIAN_POINT ( 'NONE',  ( -5.000000000000000000, 6.123233995736766300E-016, -0.5000000000000004400 ) ) ;
ENDSEC;
END-ISO-10303-21;
