ISO-10303-21;
HEADER;
FILE_DESCRIPTION (( 'STEP AP214' ),
    '1' );
FILE_NAME ('6520100STS',
    '2019-02-01T12:50:15',
    ( '' ),
    ('JUGARD+KÜNSTNER GmbH'),
    'SwSTEP 2.0',
    'SolidWorks 2017',
    '' );
FILE_SCHEMA (( 'AUTOMOTIVE_DESIGN' ));
ENDSEC;

DATA;
#1 = ORIENTED_EDGE ( 'NONE', *, *, #212, .T. ) ;
#2 = EDGE_CURVE ( 'NONE', #191, #73, #195, .T. ) ;
#3 = CARTESIAN_POINT ( 'NONE',  ( -682.0000000000350200, 282.0000000000150100, 4.000000000000000000 ) ) ;
#4 = EDGE_CURVE ( 'NONE', #171, #227, #34, .T. ) ;
#5 = CARTESIAN_POINT ( 'NONE',  ( -682.0000000000350200, -717.9999999999849900, 4.000000000000000000 ) ) ;
#6 = PLANE ( 'NONE',  #93 ) ;
#7 = AXIS2_PLACEMENT_3D ( 'NONE', #76, #66, #200 ) ;
#8 = PRESENTATION_LAYER_ASSIGNMENT (  '', '', ( #30 ) ) ;
#9 = ORIENTED_EDGE ( 'NONE', *, *, #19, .F. ) ;
#10 =( NAMED_UNIT ( * ) PLANE_ANGLE_UNIT ( ) SI_UNIT ( $, .RADIAN. ) );
#11 = FACE_OUTER_BOUND ( 'NONE', #98, .T. ) ;
#12 = SURFACE_STYLE_FILL_AREA ( #23 ) ;
#13 = DIRECTION ( 'NONE',  ( -1.000000000000000000, -0.0000000000000000000, 0.0000000000000000000 ) ) ;
#14 = VECTOR ( 'NONE', #112, 1000.000000000000000 ) ;
#15 = DIRECTION ( 'NONE',  ( 1.000000000000000000, 0.0000000000000000000, -0.0000000000000000000 ) ) ;
#16 = EDGE_LOOP ( 'NONE', ( #74, #201, #103, #197 ) ) ;
#17 = ADVANCED_FACE ( 'NONE', ( #147 ), #36, .T. ) ;
#18 = CARTESIAN_POINT ( 'NONE',  ( 1617.999999999970200, -717.9999999999849900, 4.000000000000000000 ) ) ;
#19 = EDGE_CURVE ( 'NONE', #191, #24, #166, .T. ) ;
#20 = ORIENTED_EDGE ( 'NONE', *, *, #224, .T. ) ;
#21 = VECTOR ( 'NONE', #58, 1000.000000000000000 ) ;
#22 = DIRECTION ( 'NONE',  ( 0.0000000000000000000, 1.000000000000000000, 0.0000000000000000000 ) ) ;
#23 = FILL_AREA_STYLE ('',( #116 ) ) ;
#24 = VERTEX_POINT ( 'NONE', #90 ) ;
#25 = SURFACE_STYLE_USAGE ( .BOTH. , #156 ) ;
#26 = ORIENTED_EDGE ( 'NONE', *, *, #2, .T. ) ;
#27 = DIRECTION ( 'NONE',  ( 0.0000000000000000000, -1.000000000000000000, -0.0000000000000000000 ) ) ;
#28 = PRODUCT_RELATED_PRODUCT_CATEGORY ( 'part', '', ( #69 ) ) ;
#29 = DIRECTION ( 'NONE',  ( 0.0000000000000000000, 1.000000000000000000, -0.0000000000000000000 ) ) ;
#30 = STYLED_ITEM ( 'NONE', ( #123 ), #17 ) ;
#31 = EDGE_LOOP ( 'NONE', ( #20, #102, #141, #177 ) ) ;
#32 = SURFACE_STYLE_FILL_AREA ( #122 ) ;
#33 = VECTOR ( 'NONE', #43, 1000.000000000000000 ) ;
#34 = LINE ( 'NONE', #18, #92 ) ;
#35 = ADVANCED_BREP_SHAPE_REPRESENTATION ( '6520100STS_CNAJF00', ( #60, #114 ), #42 ) ;
#36 = PLANE ( 'NONE',  #229 ) ;
#37 =( LENGTH_UNIT ( ) NAMED_UNIT ( * ) SI_UNIT ( .MILLI., .METRE. ) );
#38 = FILL_AREA_STYLE ('',( #182 ) ) ;
#39 = SURFACE_SIDE_STYLE ('',( #184 ) ) ;
#40 = ORIENTED_EDGE ( 'NONE', *, *, #4, .F. ) ;
#41 = VECTOR ( 'NONE', #117, 1000.000000000000000 ) ;
#42 =( GEOMETRIC_REPRESENTATION_CONTEXT ( 3 ) GLOBAL_UNCERTAINTY_ASSIGNED_CONTEXT ( ( #81 ) ) GLOBAL_UNIT_ASSIGNED_CONTEXT ( ( #68, #223, #140 ) ) REPRESENTATION_CONTEXT ( 'NONE', 'WORKASPACE' ) );
#43 = DIRECTION ( 'NONE',  ( -0.0000000000000000000, -0.0000000000000000000, 1.000000000000000000 ) ) ;
#44 = DIRECTION ( 'NONE',  ( 1.000000000000000000, 0.0000000000000000000, -0.0000000000000000000 ) ) ;
#45 = PLANE ( 'NONE',  #109 ) ;
#46 = CARTESIAN_POINT ( 'NONE',  ( 1617.999999999970200, -717.9999999999849900, 4.000000000000000000 ) ) ;
#47 = SURFACE_SIDE_STYLE ('',( #32 ) ) ;
#48 = APPLICATION_PROTOCOL_DEFINITION ( 'draft international standard', 'automotive_design', 1998, #124 ) ;
#49 = PRODUCT_CONTEXT ( 'NONE', #97, 'mechanical' ) ;
#50 = SHAPE_DEFINITION_REPRESENTATION ( #111, #35 ) ;
#51 = FACE_OUTER_BOUND ( 'NONE', #16, .T. ) ;
#52 = LINE ( 'NONE', #185, #21 ) ;
#53 = CARTESIAN_POINT ( 'NONE',  ( -682.0000000000350200, -717.9999999999849900, 4.000000000000000000 ) ) ;
#54 = VECTOR ( 'NONE', #27, 1000.000000000000000 ) ;
#55 =( NAMED_UNIT ( * ) SI_UNIT ( $, .STERADIAN. ) SOLID_ANGLE_UNIT ( ) );
#56 = FILL_AREA_STYLE_COLOUR ( '', #232 ) ;
#57 = EDGE_CURVE ( 'NONE', #73, #175, #52, .T. ) ;
#58 = DIRECTION ( 'NONE',  ( 0.0000000000000000000, -1.000000000000000000, -0.0000000000000000000 ) ) ;
#59 = SURFACE_SIDE_STYLE ('',( #222 ) ) ;
#60 = MANIFOLD_SOLID_BREP ( 'Importiert1', #139 ) ;
#61 = DIRECTION ( 'NONE',  ( -0.0000000000000000000, 1.000000000000000000, 0.0000000000000000000 ) ) ;
#62 = MECHANICAL_DESIGN_GEOMETRIC_PRESENTATION_REPRESENTATION (  '', ( #186 ), #215 ) ;
#63 =( NAMED_UNIT ( * ) SI_UNIT ( $, .STERADIAN. ) SOLID_ANGLE_UNIT ( ) );
#64 = VECTOR ( 'NONE', #75, 1000.000000000000000 ) ;
#65 = LINE ( 'NONE', #110, #137 ) ;
#66 = DIRECTION ( 'NONE',  ( -1.000000000000000000, 0.0000000000000000000, 0.0000000000000000000 ) ) ;
#67 = CARTESIAN_POINT ( 'NONE',  ( -682.0000000000350200, -717.9999999999849900, 4.000000000000000000 ) ) ;
#68 =( LENGTH_UNIT ( ) NAMED_UNIT ( * ) SI_UNIT ( .MILLI., .METRE. ) );
#69 = PRODUCT ( '6520100STS_CNAJF00', '6520100STS_CNAJF00', '', ( #49 ) ) ;
#70 = MECHANICAL_DESIGN_GEOMETRIC_PRESENTATION_REPRESENTATION (  '', ( #30 ), #178 ) ;
#71 = FACE_OUTER_BOUND ( 'NONE', #121, .T. ) ;
#72 = LINE ( 'NONE', #199, #78 ) ;
#73 = VERTEX_POINT ( 'NONE', #115 ) ;
#74 = ORIENTED_EDGE ( 'NONE', *, *, #190, .F. ) ;
#75 = DIRECTION ( 'NONE',  ( 1.000000000000000000, 0.0000000000000000000, -0.0000000000000000000 ) ) ;
#76 = CARTESIAN_POINT ( 'NONE',  ( 1617.999999999970200, -717.9999999999849900, 4.000000000000000000 ) ) ;
#77 = CARTESIAN_POINT ( 'NONE',  ( -682.0000000000350200, -717.9999999999849900, 4.000000000000000000 ) ) ;
#78 = VECTOR ( 'NONE', #95, 1000.000000000000000 ) ;
#79 = CARTESIAN_POINT ( 'NONE',  ( 1617.999999999970200, 282.0000000000150100, 0.0000000000000000000 ) ) ;
#80 = DIRECTION ( 'NONE',  ( 1.000000000000000000, 0.0000000000000000000, 0.0000000000000000000 ) ) ;
#81 = UNCERTAINTY_MEASURE_WITH_UNIT (LENGTH_MEASURE( 1.000000000000000100E-005 ), #68, 'distance_accuracy_value', 'NONE');
#82 = VECTOR ( 'NONE', #61, 1000.000000000000000 ) ;
#83 = AXIS2_PLACEMENT_3D ( 'NONE', #5, #22, #136 ) ;
#84 = ORIENTED_EDGE ( 'NONE', *, *, #4, .T. ) ;
#85 = VECTOR ( 'NONE', #29, 1000.000000000000000 ) ;
#86 = ADVANCED_FACE ( 'NONE', ( #127 ), #132, .F. ) ;
#87 = PRESENTATION_STYLE_ASSIGNMENT (( #150 ) ) ;
#88 = COLOUR_RGB ( '',0.7529411764705882200, 0.7529411764705882200, 0.7529411764705882200 ) ;
#89 = LINE ( 'NONE', #135, #41 ) ;
#90 = CARTESIAN_POINT ( 'NONE',  ( 1617.999999999970200, 282.0000000000150100, 4.000000000000000000 ) ) ;
#91 = LINE ( 'NONE', #170, #85 ) ;
#92 = VECTOR ( 'NONE', #105, 1000.000000000000000 ) ;
#93 = AXIS2_PLACEMENT_3D ( 'NONE', #169, #168, #44 ) ;
#94 = STYLED_ITEM ( 'NONE', ( #204 ), #161 ) ;
#95 = DIRECTION ( 'NONE',  ( 0.0000000000000000000, 0.0000000000000000000, -1.000000000000000000 ) ) ;
#96 = PLANE ( 'NONE',  #180 ) ;
#97 = APPLICATION_CONTEXT ( 'automotive_design' ) ;
#98 = EDGE_LOOP ( 'NONE', ( #208, #203, #9, #26 ) ) ;
#99 = LINE ( 'NONE', #189, #54 ) ;
#100 = COLOUR_RGB ( '',0.5686274509803921400, 0.6078431372549019100, 0.6470588235294118000 ) ;
#101 = APPLICATION_PROTOCOL_DEFINITION ( 'draft international standard', 'automotive_design', 1998, #97 ) ;
#102 = ORIENTED_EDGE ( 'NONE', *, *, #120, .T. ) ;
#103 = ORIENTED_EDGE ( 'NONE', *, *, #157, .F. ) ;
#104 = ORIENTED_EDGE ( 'NONE', *, *, #212, .F. ) ;
#105 = DIRECTION ( 'NONE',  ( 0.0000000000000000000, 0.0000000000000000000, 1.000000000000000000 ) ) ;
#106 = VECTOR ( 'NONE', #13, 1000.000000000000000 ) ;
#107 = MECHANICAL_DESIGN_GEOMETRIC_PRESENTATION_REPRESENTATION (  '', ( #206 ), #164 ) ;
#108 = UNCERTAINTY_MEASURE_WITH_UNIT (LENGTH_MEASURE( 1.000000000000000100E-005 ), #192, 'distance_accuracy_value', 'NONE');
#109 = AXIS2_PLACEMENT_3D ( 'NONE', #152, #133, #217 ) ;
#110 = CARTESIAN_POINT ( 'NONE',  ( 1617.999999999970200, 282.0000000000150100, 4.000000000000000000 ) ) ;
#111 = PRODUCT_DEFINITION_SHAPE ( 'NONE', 'NONE',  #155 ) ;
#112 = DIRECTION ( 'NONE',  ( -0.0000000000000000000, 0.0000000000000000000, 1.000000000000000000 ) ) ;
#113 = DIRECTION ( 'NONE',  ( -1.000000000000000000, -0.0000000000000000000, -0.0000000000000000000 ) ) ;
#114 = AXIS2_PLACEMENT_3D ( 'NONE', #221, #159, #80 ) ;
#115 = CARTESIAN_POINT ( 'NONE',  ( -682.0000000000350200, 282.0000000000150100, 0.0000000000000000000 ) ) ;
#116 = FILL_AREA_STYLE_COLOUR ( '', #219 ) ;
#117 = DIRECTION ( 'NONE',  ( 1.000000000000000000, 0.0000000000000000000, -0.0000000000000000000 ) ) ;
#118 =( NAMED_UNIT ( * ) PLANE_ANGLE_UNIT ( ) SI_UNIT ( $, .RADIAN. ) );
#119 = DIRECTION ( 'NONE',  ( 0.0000000000000000000, -0.0000000000000000000, -1.000000000000000000 ) ) ;
#120 = EDGE_CURVE ( 'NONE', #24, #138, #65, .T. ) ;
#121 = EDGE_LOOP ( 'NONE', ( #187, #104, #160, #194 ) ) ;
#122 = FILL_AREA_STYLE ('',( #202 ) ) ;
#123 = PRESENTATION_STYLE_ASSIGNMENT (( #128 ) ) ;
#124 = APPLICATION_CONTEXT ( 'automotive_design' ) ;
#125 = SURFACE_STYLE_USAGE ( .BOTH. , #47 ) ;
#126 = FACE_OUTER_BOUND ( 'NONE', #145, .T. ) ;
#127 = FACE_OUTER_BOUND ( 'NONE', #144, .T. ) ;
#128 = SURFACE_STYLE_USAGE ( .BOTH. , #39 ) ;
#129 = UNCERTAINTY_MEASURE_WITH_UNIT (LENGTH_MEASURE( 1.000000000000000100E-005 ), #154, 'distance_accuracy_value', 'NONE');
#130 = DIRECTION ( 'NONE',  ( 0.0000000000000000000, 0.0000000000000000000, 1.000000000000000000 ) ) ;
#131 = ORIENTED_EDGE ( 'NONE', *, *, #143, .T. ) ;
#132 = PLANE ( 'NONE',  #83 ) ;
#133 = DIRECTION ( 'NONE',  ( 1.000000000000000000, 0.0000000000000000000, 0.0000000000000000000 ) ) ;
#134 = PRESENTATION_LAYER_ASSIGNMENT (  '', '', ( #94 ) ) ;
#135 = CARTESIAN_POINT ( 'NONE',  ( -682.0000000000350200, -717.9999999999849900, 0.0000000000000000000 ) ) ;
#136 = DIRECTION ( 'NONE',  ( 0.0000000000000000000, -0.0000000000000000000, 1.000000000000000000 ) ) ;
#137 = VECTOR ( 'NONE', #113, 1000.000000000000000 ) ;
#138 = VERTEX_POINT ( 'NONE', #3 ) ;
#139 = CLOSED_SHELL ( 'NONE', ( #161, #142, #209, #181, #86, #17 ) ) ;
#140 =( NAMED_UNIT ( * ) SI_UNIT ( $, .STERADIAN. ) SOLID_ANGLE_UNIT ( ) );
#141 = ORIENTED_EDGE ( 'NONE', *, *, #163, .T. ) ;
#142 = ADVANCED_FACE ( 'NONE', ( #51 ), #45, .F. ) ;
#143 = EDGE_CURVE ( 'NONE', #175, #171, #89, .T. ) ;
#144 = EDGE_LOOP ( 'NONE', ( #84, #165, #153, #131 ) ) ;
#145 = EDGE_LOOP ( 'NONE', ( #207, #179, #40, #1 ) ) ;
#146 = MECHANICAL_DESIGN_GEOMETRIC_PRESENTATION_REPRESENTATION (  '', ( #94 ), #167 ) ;
#147 = FACE_OUTER_BOUND ( 'NONE', #31, .T. ) ;
#148 =( LENGTH_UNIT ( ) NAMED_UNIT ( * ) SI_UNIT ( .MILLI., .METRE. ) );
#149 = FILL_AREA_STYLE ('',( #56 ) ) ;
#150 = SURFACE_STYLE_USAGE ( .BOTH. , #59 ) ;
#151 = UNCERTAINTY_MEASURE_WITH_UNIT (LENGTH_MEASURE( 1.000000000000000100E-005 ), #148, 'distance_accuracy_value', 'NONE');
#152 = CARTESIAN_POINT ( 'NONE',  ( -682.0000000000350200, 282.0000000000150100, 4.000000000000000000 ) ) ;
#153 = ORIENTED_EDGE ( 'NONE', *, *, #190, .T. ) ;
#154 =( LENGTH_UNIT ( ) NAMED_UNIT ( * ) SI_UNIT ( .MILLI., .METRE. ) );
#155 = PRODUCT_DEFINITION ( 'UNKNOWN', '', #230, #225 ) ;
#156 = SURFACE_SIDE_STYLE ('',( #12 ) ) ;
#157 = EDGE_CURVE ( 'NONE', #73, #138, #193, .T. ) ;
#158 = CARTESIAN_POINT ( 'NONE',  ( -682.0000000000350200, 282.0000000000150100, 4.000000000000000000 ) ) ;
#159 = DIRECTION ( 'NONE',  ( 0.0000000000000000000, 0.0000000000000000000, 1.000000000000000000 ) ) ;
#160 = ORIENTED_EDGE ( 'NONE', *, *, #143, .F. ) ;
#161 = ADVANCED_FACE ( 'NONE', ( #71 ), #6, .F. ) ;
#162 =( NAMED_UNIT ( * ) PLANE_ANGLE_UNIT ( ) SI_UNIT ( $, .RADIAN. ) );
#163 = EDGE_CURVE ( 'NONE', #138, #218, #99, .T. ) ;
#164 =( GEOMETRIC_REPRESENTATION_CONTEXT ( 3 ) GLOBAL_UNCERTAINTY_ASSIGNED_CONTEXT ( ( #108 ) ) GLOBAL_UNIT_ASSIGNED_CONTEXT ( ( #192, #10, #174 ) ) REPRESENTATION_CONTEXT ( 'NONE', 'WORKASPACE' ) );
#165 = ORIENTED_EDGE ( 'NONE', *, *, #176, .F. ) ;
#166 = LINE ( 'NONE', #183, #14 ) ;
#167 =( GEOMETRIC_REPRESENTATION_CONTEXT ( 3 ) GLOBAL_UNCERTAINTY_ASSIGNED_CONTEXT ( ( #129 ) ) GLOBAL_UNIT_ASSIGNED_CONTEXT ( ( #154, #118, #63 ) ) REPRESENTATION_CONTEXT ( 'NONE', 'WORKASPACE' ) );
#168 = DIRECTION ( 'NONE',  ( 0.0000000000000000000, 0.0000000000000000000, 1.000000000000000000 ) ) ;
#169 = CARTESIAN_POINT ( 'NONE',  ( -682.0000000000350200, -717.9999999999849900, 0.0000000000000000000 ) ) ;
#170 = CARTESIAN_POINT ( 'NONE',  ( 1617.999999999970200, -717.9999999999849900, 4.000000000000000000 ) ) ;
#171 = VERTEX_POINT ( 'NONE', #172 ) ;
#172 = CARTESIAN_POINT ( 'NONE',  ( 1617.999999999970200, -717.9999999999849900, 0.0000000000000000000 ) ) ;
#173 = CARTESIAN_POINT ( 'NONE',  ( -682.0000000000350200, -717.9999999999849900, 0.0000000000000000000 ) ) ;
#174 =( NAMED_UNIT ( * ) SI_UNIT ( $, .STERADIAN. ) SOLID_ANGLE_UNIT ( ) );
#175 = VERTEX_POINT ( 'NONE', #173 ) ;
#176 = EDGE_CURVE ( 'NONE', #218, #227, #211, .T. ) ;
#177 = ORIENTED_EDGE ( 'NONE', *, *, #176, .T. ) ;
#178 =( GEOMETRIC_REPRESENTATION_CONTEXT ( 3 ) GLOBAL_UNCERTAINTY_ASSIGNED_CONTEXT ( ( #228 ) ) GLOBAL_UNIT_ASSIGNED_CONTEXT ( ( #37, #162, #55 ) ) REPRESENTATION_CONTEXT ( 'NONE', 'WORKASPACE' ) );
#179 = ORIENTED_EDGE ( 'NONE', *, *, #224, .F. ) ;
#180 = AXIS2_PLACEMENT_3D ( 'NONE', #216, #214, #119 ) ;
#181 = ADVANCED_FACE ( 'NONE', ( #126 ), #188, .F. ) ;
#182 = FILL_AREA_STYLE_COLOUR ( '', #100 ) ;
#183 = CARTESIAN_POINT ( 'NONE',  ( 1617.999999999970200, 282.0000000000150100, 4.000000000000000000 ) ) ;
#184 = SURFACE_STYLE_FILL_AREA ( #38 ) ;
#185 = CARTESIAN_POINT ( 'NONE',  ( -682.0000000000350200, -717.9999999999849900, 0.0000000000000000000 ) ) ;
#186 = STYLED_ITEM ( 'NONE', ( #87 ), #60 ) ;
#187 = ORIENTED_EDGE ( 'NONE', *, *, #2, .F. ) ;
#188 = PLANE ( 'NONE',  #7 ) ;
#189 = CARTESIAN_POINT ( 'NONE',  ( -682.0000000000350200, 282.0000000000150100, 4.000000000000000000 ) ) ;
#190 = EDGE_CURVE ( 'NONE', #218, #175, #72, .T. ) ;
#191 = VERTEX_POINT ( 'NONE', #79 ) ;
#192 =( LENGTH_UNIT ( ) NAMED_UNIT ( * ) SI_UNIT ( .MILLI., .METRE. ) );
#193 = LINE ( 'NONE', #158, #33 ) ;
#194 = ORIENTED_EDGE ( 'NONE', *, *, #57, .F. ) ;
#195 = LINE ( 'NONE', #196, #106 ) ;
#196 = CARTESIAN_POINT ( 'NONE',  ( -682.0000000000350200, 282.0000000000150100, 0.0000000000000000000 ) ) ;
#197 = ORIENTED_EDGE ( 'NONE', *, *, #57, .T. ) ;
#198 =( NAMED_UNIT ( * ) SI_UNIT ( $, .STERADIAN. ) SOLID_ANGLE_UNIT ( ) );
#199 = CARTESIAN_POINT ( 'NONE',  ( -682.0000000000350200, -717.9999999999849900, 4.000000000000000000 ) ) ;
#200 = DIRECTION ( 'NONE',  ( 0.0000000000000000000, 0.0000000000000000000, 1.000000000000000000 ) ) ;
#201 = ORIENTED_EDGE ( 'NONE', *, *, #163, .F. ) ;
#202 = FILL_AREA_STYLE_COLOUR ( '', #88 ) ;
#203 = ORIENTED_EDGE ( 'NONE', *, *, #120, .F. ) ;
#204 = PRESENTATION_STYLE_ASSIGNMENT (( #25 ) ) ;
#205 = PRESENTATION_LAYER_ASSIGNMENT (  '', '', ( #186 ) ) ;
#206 = STYLED_ITEM ( 'NONE', ( #231 ), #35 ) ;
#207 = ORIENTED_EDGE ( 'NONE', *, *, #19, .T. ) ;
#208 = ORIENTED_EDGE ( 'NONE', *, *, #157, .T. ) ;
#209 = ADVANCED_FACE ( 'NONE', ( #11 ), #96, .F. ) ;
#210 = PRESENTATION_LAYER_ASSIGNMENT (  '', '', ( #206 ) ) ;
#211 = LINE ( 'NONE', #77, #64 ) ;
#212 = EDGE_CURVE ( 'NONE', #171, #191, #226, .T. ) ;
#213 =( NAMED_UNIT ( * ) PLANE_ANGLE_UNIT ( ) SI_UNIT ( $, .RADIAN. ) );
#214 = DIRECTION ( 'NONE',  ( 0.0000000000000000000, -1.000000000000000000, 0.0000000000000000000 ) ) ;
#215 =( GEOMETRIC_REPRESENTATION_CONTEXT ( 3 ) GLOBAL_UNCERTAINTY_ASSIGNED_CONTEXT ( ( #151 ) ) GLOBAL_UNIT_ASSIGNED_CONTEXT ( ( #148, #213, #198 ) ) REPRESENTATION_CONTEXT ( 'NONE', 'WORKASPACE' ) );
#216 = CARTESIAN_POINT ( 'NONE',  ( 1617.999999999970200, 282.0000000000150100, 4.000000000000000000 ) ) ;
#217 = DIRECTION ( 'NONE',  ( 0.0000000000000000000, 0.0000000000000000000, -1.000000000000000000 ) ) ;
#218 = VERTEX_POINT ( 'NONE', #67 ) ;
#219 = COLOUR_RGB ( '',0.5686274509803921400, 0.6078431372549019100, 0.6470588235294118000 ) ;
#220 = CARTESIAN_POINT ( 'NONE',  ( 1617.999999999970200, -717.9999999999849900, 0.0000000000000000000 ) ) ;
#221 = CARTESIAN_POINT ( 'NONE',  ( 0.0000000000000000000, 0.0000000000000000000, 0.0000000000000000000 ) ) ;
#222 = SURFACE_STYLE_FILL_AREA ( #149 ) ;
#223 =( NAMED_UNIT ( * ) PLANE_ANGLE_UNIT ( ) SI_UNIT ( $, .RADIAN. ) );
#224 = EDGE_CURVE ( 'NONE', #227, #24, #91, .T. ) ;
#225 = PRODUCT_DEFINITION_CONTEXT ( 'detailed design', #124, 'design' ) ;
#226 = LINE ( 'NONE', #220, #82 ) ;
#227 = VERTEX_POINT ( 'NONE', #46 ) ;
#228 = UNCERTAINTY_MEASURE_WITH_UNIT (LENGTH_MEASURE( 1.000000000000000100E-005 ), #37, 'distance_accuracy_value', 'NONE');
#229 = AXIS2_PLACEMENT_3D ( 'NONE', #53, #130, #15 ) ;
#230 = PRODUCT_DEFINITION_FORMATION_WITH_SPECIFIED_SOURCE ( 'ANY', '', #69, .NOT_KNOWN. ) ;
#231 = PRESENTATION_STYLE_ASSIGNMENT (( #125 ) ) ;
#232 = COLOUR_RGB ( '',0.0000000000000000000, 0.0000000000000000000, 0.0000000000000000000 ) ;
ENDSEC;
END-ISO-10303-21;
