ISO-10303-21;
HEADER;
FILE_DESCRIPTION (( 'STEP AP214' ),
    '1' );
FILE_NAME ('6520178',
    '2019-02-01T12:48:18',
    ( '' ),
    ('JUGARD+KÜNSTNER GmbH'),
    'SwSTEP 2.0',
    'SolidWorks 2017',
    '' );
FILE_SCHEMA (( 'AUTOMOTIVE_DESIGN' ));
ENDSEC;

DATA;
#1 = ADVANCED_FACE ( 'NONE', ( #193 ), #102, .F. ) ;
#2 = EDGE_CURVE ( 'NONE', #83, #35, #77, .T. ) ;
#3 = LINE ( 'NONE', #106, #126 ) ;
#4 = LINE ( 'NONE', #57, #93 ) ;
#5 = DIRECTION ( 'NONE',  ( 0.0000000000000000000, 1.000000000000000000, -0.0000000000000000000 ) ) ;
#6 = AXIS2_PLACEMENT_3D ( 'NONE', #92, #39, #202 ) ;
#7 = CARTESIAN_POINT ( 'NONE',  ( -500.0000000000000000, -250.0000000000000000, 4.000000000000000000 ) ) ;
#8 = SURFACE_STYLE_USAGE ( .BOTH. , #165 ) ;
#9 = PRODUCT_DEFINITION_SHAPE ( 'NONE', 'NONE',  #18 ) ;
#10 = LINE ( 'NONE', #40, #67 ) ;
#11 = CARTESIAN_POINT ( 'NONE',  ( -500.0000000000000000, -250.0000000000000000, 0.0000000000000000000 ) ) ;
#12 = FILL_AREA_STYLE_COLOUR ( '', #112 ) ;
#13 = EDGE_CURVE ( 'NONE', #98, #80, #127, .T. ) ;
#14 = FACE_OUTER_BOUND ( 'NONE', #158, .T. ) ;
#15 = ORIENTED_EDGE ( 'NONE', *, *, #2, .T. ) ;
#16 = VECTOR ( 'NONE', #151, 1000.000000000000000 ) ;
#17 = STYLED_ITEM ( 'NONE', ( #27 ), #45 ) ;
#18 = PRODUCT_DEFINITION ( 'UNKNOWN', '', #161, #100 ) ;
#19 = DIRECTION ( 'NONE',  ( -0.0000000000000000000, 0.0000000000000000000, 1.000000000000000000 ) ) ;
#20 = CARTESIAN_POINT ( 'NONE',  ( 500.0000000000000000, 250.0000000000000000, 4.000000000000000000 ) ) ;
#21 = ORIENTED_EDGE ( 'NONE', *, *, #33, .F. ) ;
#22 =( NAMED_UNIT ( * ) PLANE_ANGLE_UNIT ( ) SI_UNIT ( $, .RADIAN. ) );
#23 = ORIENTED_EDGE ( 'NONE', *, *, #192, .T. ) ;
#24 = DIRECTION ( 'NONE',  ( -1.000000000000000000, -0.0000000000000000000, 0.0000000000000000000 ) ) ;
#25 = FILL_AREA_STYLE ('',( #103 ) ) ;
#26 = CARTESIAN_POINT ( 'NONE',  ( -500.0000000000000000, 250.0000000000000000, 0.0000000000000000000 ) ) ;
#27 = PRESENTATION_STYLE_ASSIGNMENT (( #200 ) ) ;
#28 = DIRECTION ( 'NONE',  ( 1.000000000000000000, 0.0000000000000000000, -0.0000000000000000000 ) ) ;
#29 = VECTOR ( 'NONE', #69, 1000.000000000000000 ) ;
#30 = ADVANCED_FACE ( 'NONE', ( #58 ), #104, .F. ) ;
#31 = VERTEX_POINT ( 'NONE', #183 ) ;
#32 = VECTOR ( 'NONE', #186, 1000.000000000000000 ) ;
#33 = EDGE_CURVE ( 'NONE', #59, #31, #116, .T. ) ;
#34 = VECTOR ( 'NONE', #170, 1000.000000000000000 ) ;
#35 = VERTEX_POINT ( 'NONE', #132 ) ;
#36 = DIRECTION ( 'NONE',  ( 0.0000000000000000000, -0.0000000000000000000, -1.000000000000000000 ) ) ;
#37 = APPLICATION_PROTOCOL_DEFINITION ( 'draft international standard', 'automotive_design', 1998, #107 ) ;
#38 = AXIS2_PLACEMENT_3D ( 'NONE', #73, #41, #28 ) ;
#39 = DIRECTION ( 'NONE',  ( 1.000000000000000000, 0.0000000000000000000, 0.0000000000000000000 ) ) ;
#40 = CARTESIAN_POINT ( 'NONE',  ( 500.0000000000000000, -250.0000000000000000, 0.0000000000000000000 ) ) ;
#41 = DIRECTION ( 'NONE',  ( 0.0000000000000000000, 0.0000000000000000000, 1.000000000000000000 ) ) ;
#42 = COLOUR_RGB ( '',0.7529411764705882200, 0.7529411764705882200, 0.7529411764705882200 ) ;
#43 = EDGE_LOOP ( 'NONE', ( #169, #181, #162, #23 ) ) ;
#44 = VERTEX_POINT ( 'NONE', #91 ) ;
#45 = MANIFOLD_SOLID_BREP ( 'Importiert1', #188 ) ;
#46 = EDGE_CURVE ( 'NONE', #44, #187, #109, .T. ) ;
#47 = SURFACE_STYLE_FILL_AREA ( #185 ) ;
#48 = PRESENTATION_STYLE_ASSIGNMENT (( #8 ) ) ;
#49 =( NAMED_UNIT ( * ) SI_UNIT ( $, .STERADIAN. ) SOLID_ANGLE_UNIT ( ) );
#50 = DIRECTION ( 'NONE',  ( 1.000000000000000000, 0.0000000000000000000, -0.0000000000000000000 ) ) ;
#51 = PLANE ( 'NONE',  #6 ) ;
#52 =( NAMED_UNIT ( * ) SI_UNIT ( $, .STERADIAN. ) SOLID_ANGLE_UNIT ( ) );
#53 = VECTOR ( 'NONE', #19, 1000.000000000000000 ) ;
#54 = SURFACE_SIDE_STYLE ('',( #47 ) ) ;
#55 = EDGE_CURVE ( 'NONE', #80, #31, #105, .T. ) ;
#56 = PLANE ( 'NONE',  #152 ) ;
#57 = CARTESIAN_POINT ( 'NONE',  ( 500.0000000000000000, -250.0000000000000000, 4.000000000000000000 ) ) ;
#58 = FACE_OUTER_BOUND ( 'NONE', #43, .T. ) ;
#59 = VERTEX_POINT ( 'NONE', #26 ) ;
#60 = MECHANICAL_DESIGN_GEOMETRIC_PRESENTATION_REPRESENTATION (  '', ( #97 ), #65 ) ;
#61 = ADVANCED_FACE ( 'NONE', ( #74 ), #122, .F. ) ;
#62 = CARTESIAN_POINT ( 'NONE',  ( -500.0000000000000000, -250.0000000000000000, 4.000000000000000000 ) ) ;
#63 = ADVANCED_BREP_SHAPE_REPRESENTATION ( '6520178_CNAJF00', ( #45, #142 ), #68 ) ;
#64 = DIRECTION ( 'NONE',  ( 0.0000000000000000000, 0.0000000000000000000, -1.000000000000000000 ) ) ;
#65 =( GEOMETRIC_REPRESENTATION_CONTEXT ( 3 ) GLOBAL_UNCERTAINTY_ASSIGNED_CONTEXT ( ( #157 ) ) GLOBAL_UNIT_ASSIGNED_CONTEXT ( ( #180, #72, #196 ) ) REPRESENTATION_CONTEXT ( 'NONE', 'WORKASPACE' ) );
#66 = ORIENTED_EDGE ( 'NONE', *, *, #177, .F. ) ;
#67 = VECTOR ( 'NONE', #167, 1000.000000000000000 ) ;
#68 =( GEOMETRIC_REPRESENTATION_CONTEXT ( 3 ) GLOBAL_UNCERTAINTY_ASSIGNED_CONTEXT ( ( #174 ) ) GLOBAL_UNIT_ASSIGNED_CONTEXT ( ( #86, #22, #49 ) ) REPRESENTATION_CONTEXT ( 'NONE', 'WORKASPACE' ) );
#69 = DIRECTION ( 'NONE',  ( 0.0000000000000000000, 0.0000000000000000000, 1.000000000000000000 ) ) ;
#70 = DIRECTION ( 'NONE',  ( 0.0000000000000000000, 0.0000000000000000000, 1.000000000000000000 ) ) ;
#71 = CARTESIAN_POINT ( 'NONE',  ( -500.0000000000000000, 250.0000000000000000, 4.000000000000000000 ) ) ;
#72 =( NAMED_UNIT ( * ) PLANE_ANGLE_UNIT ( ) SI_UNIT ( $, .RADIAN. ) );
#73 = CARTESIAN_POINT ( 'NONE',  ( -500.0000000000000000, -250.0000000000000000, 0.0000000000000000000 ) ) ;
#74 = FACE_OUTER_BOUND ( 'NONE', #133, .T. ) ;
#75 = CARTESIAN_POINT ( 'NONE',  ( -500.0000000000000000, -250.0000000000000000, 4.000000000000000000 ) ) ;
#76 =( LENGTH_UNIT ( ) NAMED_UNIT ( * ) SI_UNIT ( .MILLI., .METRE. ) );
#77 = LINE ( 'NONE', #7, #145 ) ;
#78 = PRODUCT_RELATED_PRODUCT_CATEGORY ( 'part', '', ( #159 ) ) ;
#79 = ORIENTED_EDGE ( 'NONE', *, *, #189, .F. ) ;
#80 = VERTEX_POINT ( 'NONE', #166 ) ;
#81 = AXIS2_PLACEMENT_3D ( 'NONE', #144, #147, #88 ) ;
#82 = CARTESIAN_POINT ( 'NONE',  ( -500.0000000000000000, -250.0000000000000000, 4.000000000000000000 ) ) ;
#83 = VERTEX_POINT ( 'NONE', #75 ) ;
#84 = ORIENTED_EDGE ( 'NONE', *, *, #46, .F. ) ;
#85 = APPLICATION_CONTEXT ( 'automotive_design' ) ;
#86 =( LENGTH_UNIT ( ) NAMED_UNIT ( * ) SI_UNIT ( .MILLI., .METRE. ) );
#87 = CARTESIAN_POINT ( 'NONE',  ( 500.0000000000000000, 250.0000000000000000, 4.000000000000000000 ) ) ;
#88 = DIRECTION ( 'NONE',  ( 0.0000000000000000000, 0.0000000000000000000, 1.000000000000000000 ) ) ;
#89 = ORIENTED_EDGE ( 'NONE', *, *, #99, .F. ) ;
#90 = CARTESIAN_POINT ( 'NONE',  ( 0.0000000000000000000, 0.0000000000000000000, 0.0000000000000000000 ) ) ;
#91 = CARTESIAN_POINT ( 'NONE',  ( -500.0000000000000000, -250.0000000000000000, 0.0000000000000000000 ) ) ;
#92 = CARTESIAN_POINT ( 'NONE',  ( -500.0000000000000000, 250.0000000000000000, 4.000000000000000000 ) ) ;
#93 = VECTOR ( 'NONE', #5, 1000.000000000000000 ) ;
#94 = MECHANICAL_DESIGN_GEOMETRIC_PRESENTATION_REPRESENTATION (  '', ( #17 ), #120 ) ;
#95 = CARTESIAN_POINT ( 'NONE',  ( 500.0000000000000000, 250.0000000000000000, 4.000000000000000000 ) ) ;
#96 = ADVANCED_FACE ( 'NONE', ( #14 ), #51, .F. ) ;
#97 = STYLED_ITEM ( 'NONE', ( #48 ), #63 ) ;
#98 = VERTEX_POINT ( 'NONE', #131 ) ;
#99 = EDGE_CURVE ( 'NONE', #187, #98, #10, .T. ) ;
#100 = PRODUCT_DEFINITION_CONTEXT ( 'detailed design', #85, 'design' ) ;
#101 = VECTOR ( 'NONE', #24, 1000.000000000000000 ) ;
#102 = PLANE ( 'NONE',  #137 ) ;
#103 = FILL_AREA_STYLE_COLOUR ( '', #42 ) ;
#104 = PLANE ( 'NONE',  #124 ) ;
#105 = LINE ( 'NONE', #95, #16 ) ;
#106 = CARTESIAN_POINT ( 'NONE',  ( -500.0000000000000000, 250.0000000000000000, 4.000000000000000000 ) ) ;
#107 = APPLICATION_CONTEXT ( 'automotive_design' ) ;
#108 = EDGE_CURVE ( 'NONE', #59, #44, #110, .T. ) ;
#109 = LINE ( 'NONE', #11, #32 ) ;
#110 = LINE ( 'NONE', #153, #34 ) ;
#111 = ADVANCED_FACE ( 'NONE', ( #156 ), #56, .T. ) ;
#112 = COLOUR_RGB ( '',1.000000000000000000, 1.000000000000000000, 1.000000000000000000 ) ;
#113 = PRESENTATION_LAYER_ASSIGNMENT (  '', '', ( #97 ) ) ;
#114 = CARTESIAN_POINT ( 'NONE',  ( 500.0000000000000000, -250.0000000000000000, 0.0000000000000000000 ) ) ;
#115 = CARTESIAN_POINT ( 'NONE',  ( -500.0000000000000000, 250.0000000000000000, 0.0000000000000000000 ) ) ;
#116 = LINE ( 'NONE', #71, #135 ) ;
#117 = CARTESIAN_POINT ( 'NONE',  ( 500.0000000000000000, -250.0000000000000000, 4.000000000000000000 ) ) ;
#118 =( NAMED_UNIT ( * ) PLANE_ANGLE_UNIT ( ) SI_UNIT ( $, .RADIAN. ) );
#119 = DIRECTION ( 'NONE',  ( -0.0000000000000000000, -0.0000000000000000000, 1.000000000000000000 ) ) ;
#120 =( GEOMETRIC_REPRESENTATION_CONTEXT ( 3 ) GLOBAL_UNCERTAINTY_ASSIGNED_CONTEXT ( ( #160 ) ) GLOBAL_UNIT_ASSIGNED_CONTEXT ( ( #76, #118, #52 ) ) REPRESENTATION_CONTEXT ( 'NONE', 'WORKASPACE' ) );
#121 = LINE ( 'NONE', #117, #29 ) ;
#122 = PLANE ( 'NONE',  #38 ) ;
#123 = EDGE_LOOP ( 'NONE', ( #190, #66, #79, #179 ) ) ;
#124 = AXIS2_PLACEMENT_3D ( 'NONE', #20, #129, #36 ) ;
#125 = ORIENTED_EDGE ( 'NONE', *, *, #108, .T. ) ;
#126 = VECTOR ( 'NONE', #197, 1000.000000000000000 ) ;
#127 = LINE ( 'NONE', #87, #53 ) ;
#128 = DIRECTION ( 'NONE',  ( 0.0000000000000000000, -0.0000000000000000000, 1.000000000000000000 ) ) ;
#129 = DIRECTION ( 'NONE',  ( 0.0000000000000000000, -1.000000000000000000, 0.0000000000000000000 ) ) ;
#130 = APPLICATION_PROTOCOL_DEFINITION ( 'draft international standard', 'automotive_design', 1998, #85 ) ;
#131 = CARTESIAN_POINT ( 'NONE',  ( 500.0000000000000000, 250.0000000000000000, 0.0000000000000000000 ) ) ;
#132 = CARTESIAN_POINT ( 'NONE',  ( 500.0000000000000000, -250.0000000000000000, 4.000000000000000000 ) ) ;
#133 = EDGE_LOOP ( 'NONE', ( #178, #89, #84, #195 ) ) ;
#134 = ADVANCED_FACE ( 'NONE', ( #172 ), #194, .F. ) ;
#135 = VECTOR ( 'NONE', #119, 1000.000000000000000 ) ;
#136 = ORIENTED_EDGE ( 'NONE', *, *, #46, .T. ) ;
#137 = AXIS2_PLACEMENT_3D ( 'NONE', #82, #146, #128 ) ;
#138 = ORIENTED_EDGE ( 'NONE', *, *, #201, .T. ) ;
#139 = ORIENTED_EDGE ( 'NONE', *, *, #2, .F. ) ;
#140 = PRESENTATION_LAYER_ASSIGNMENT (  '', '', ( #17 ) ) ;
#141 = ORIENTED_EDGE ( 'NONE', *, *, #189, .T. ) ;
#142 = AXIS2_PLACEMENT_3D ( 'NONE', #90, #70, #198 ) ;
#143 = VECTOR ( 'NONE', #64, 1000.000000000000000 ) ;
#144 = CARTESIAN_POINT ( 'NONE',  ( 500.0000000000000000, -250.0000000000000000, 4.000000000000000000 ) ) ;
#145 = VECTOR ( 'NONE', #50, 1000.000000000000000 ) ;
#146 = DIRECTION ( 'NONE',  ( 0.0000000000000000000, 1.000000000000000000, 0.0000000000000000000 ) ) ;
#147 = DIRECTION ( 'NONE',  ( -1.000000000000000000, 0.0000000000000000000, 0.0000000000000000000 ) ) ;
#148 = PRODUCT_CONTEXT ( 'NONE', #107, 'mechanical' ) ;
#149 = EDGE_LOOP ( 'NONE', ( #141, #139, #154, #136 ) ) ;
#150 = CARTESIAN_POINT ( 'NONE',  ( -500.0000000000000000, -250.0000000000000000, 4.000000000000000000 ) ) ;
#151 = DIRECTION ( 'NONE',  ( -1.000000000000000000, -0.0000000000000000000, -0.0000000000000000000 ) ) ;
#152 = AXIS2_PLACEMENT_3D ( 'NONE', #150, #155, #171 ) ;
#153 = CARTESIAN_POINT ( 'NONE',  ( -500.0000000000000000, -250.0000000000000000, 0.0000000000000000000 ) ) ;
#154 = ORIENTED_EDGE ( 'NONE', *, *, #173, .T. ) ;
#155 = DIRECTION ( 'NONE',  ( 0.0000000000000000000, 0.0000000000000000000, 1.000000000000000000 ) ) ;
#156 = FACE_OUTER_BOUND ( 'NONE', #182, .T. ) ;
#157 = UNCERTAINTY_MEASURE_WITH_UNIT (LENGTH_MEASURE( 1.000000000000000100E-005 ), #180, 'distance_accuracy_value', 'NONE');
#158 = EDGE_LOOP ( 'NONE', ( #163, #175, #21, #125 ) ) ;
#159 = PRODUCT ( '6520178_CNAJF00', '6520178_CNAJF00', '', ( #148 ) ) ;
#160 = UNCERTAINTY_MEASURE_WITH_UNIT (LENGTH_MEASURE( 1.000000000000000100E-005 ), #76, 'distance_accuracy_value', 'NONE');
#161 = PRODUCT_DEFINITION_FORMATION_WITH_SPECIFIED_SOURCE ( 'ANY', '', #159, .NOT_KNOWN. ) ;
#162 = ORIENTED_EDGE ( 'NONE', *, *, #13, .F. ) ;
#163 = ORIENTED_EDGE ( 'NONE', *, *, #173, .F. ) ;
#164 = ORIENTED_EDGE ( 'NONE', *, *, #55, .T. ) ;
#165 = SURFACE_SIDE_STYLE ('',( #168 ) ) ;
#166 = CARTESIAN_POINT ( 'NONE',  ( 500.0000000000000000, 250.0000000000000000, 4.000000000000000000 ) ) ;
#167 = DIRECTION ( 'NONE',  ( -0.0000000000000000000, 1.000000000000000000, 0.0000000000000000000 ) ) ;
#168 = SURFACE_STYLE_FILL_AREA ( #25 ) ;
#169 = ORIENTED_EDGE ( 'NONE', *, *, #33, .T. ) ;
#170 = DIRECTION ( 'NONE',  ( 0.0000000000000000000, -1.000000000000000000, -0.0000000000000000000 ) ) ;
#171 = DIRECTION ( 'NONE',  ( 1.000000000000000000, 0.0000000000000000000, -0.0000000000000000000 ) ) ;
#172 = FACE_OUTER_BOUND ( 'NONE', #123, .T. ) ;
#173 = EDGE_CURVE ( 'NONE', #83, #44, #199, .T. ) ;
#174 = UNCERTAINTY_MEASURE_WITH_UNIT (LENGTH_MEASURE( 1.000000000000000100E-005 ), #86, 'distance_accuracy_value', 'NONE');
#175 = ORIENTED_EDGE ( 'NONE', *, *, #201, .F. ) ;
#176 = SHAPE_DEFINITION_REPRESENTATION ( #9, #63 ) ;
#177 = EDGE_CURVE ( 'NONE', #35, #80, #4, .T. ) ;
#178 = ORIENTED_EDGE ( 'NONE', *, *, #192, .F. ) ;
#179 = ORIENTED_EDGE ( 'NONE', *, *, #99, .T. ) ;
#180 =( LENGTH_UNIT ( ) NAMED_UNIT ( * ) SI_UNIT ( .MILLI., .METRE. ) );
#181 = ORIENTED_EDGE ( 'NONE', *, *, #55, .F. ) ;
#182 = EDGE_LOOP ( 'NONE', ( #191, #164, #138, #15 ) ) ;
#183 = CARTESIAN_POINT ( 'NONE',  ( -500.0000000000000000, 250.0000000000000000, 4.000000000000000000 ) ) ;
#184 = LINE ( 'NONE', #115, #101 ) ;
#185 = FILL_AREA_STYLE ('',( #12 ) ) ;
#186 = DIRECTION ( 'NONE',  ( 1.000000000000000000, 0.0000000000000000000, -0.0000000000000000000 ) ) ;
#187 = VERTEX_POINT ( 'NONE', #114 ) ;
#188 = CLOSED_SHELL ( 'NONE', ( #61, #96, #30, #134, #1, #111 ) ) ;
#189 = EDGE_CURVE ( 'NONE', #187, #35, #121, .T. ) ;
#190 = ORIENTED_EDGE ( 'NONE', *, *, #13, .T. ) ;
#191 = ORIENTED_EDGE ( 'NONE', *, *, #177, .T. ) ;
#192 = EDGE_CURVE ( 'NONE', #98, #59, #184, .T. ) ;
#193 = FACE_OUTER_BOUND ( 'NONE', #149, .T. ) ;
#194 = PLANE ( 'NONE',  #81 ) ;
#195 = ORIENTED_EDGE ( 'NONE', *, *, #108, .F. ) ;
#196 =( NAMED_UNIT ( * ) SI_UNIT ( $, .STERADIAN. ) SOLID_ANGLE_UNIT ( ) );
#197 = DIRECTION ( 'NONE',  ( 0.0000000000000000000, -1.000000000000000000, -0.0000000000000000000 ) ) ;
#198 = DIRECTION ( 'NONE',  ( 1.000000000000000000, 0.0000000000000000000, 0.0000000000000000000 ) ) ;
#199 = LINE ( 'NONE', #62, #143 ) ;
#200 = SURFACE_STYLE_USAGE ( .BOTH. , #54 ) ;
#201 = EDGE_CURVE ( 'NONE', #31, #83, #3, .T. ) ;
#202 = DIRECTION ( 'NONE',  ( 0.0000000000000000000, 0.0000000000000000000, -1.000000000000000000 ) ) ;
ENDSEC;
END-ISO-10303-21;
