ISO-10303-21;
HEADER;
FILE_DESCRIPTION (( 'STEP AP214' ),
    '1' );
FILE_NAME ('6520180',
    '2019-02-01T12:48:20',
    ( '' ),
    ('JUGARD+KÜNSTNER GmbH'),
    'SwSTEP 2.0',
    'SolidWorks 2017',
    '' );
FILE_SCHEMA (( 'AUTOMOTIVE_DESIGN' ));
ENDSEC;

DATA;
#1 = ORIENTED_EDGE ( 'NONE', *, *, #164, .F. ) ;
#2 = AXIS2_PLACEMENT_3D ( 'NONE', #104, #110, #63 ) ;
#3 = DIRECTION ( 'NONE',  ( 0.0000000000000000000, -0.0000000000000000000, 1.000000000000000000 ) ) ;
#4 = ORIENTED_EDGE ( 'NONE', *, *, #151, .T. ) ;
#5 = DIRECTION ( 'NONE',  ( 1.000000000000000000, 0.0000000000000000000, -0.0000000000000000000 ) ) ;
#6 = CARTESIAN_POINT ( 'NONE',  ( 500.0000000000000000, -250.0000000000000000, 5.000000000000000000 ) ) ;
#7 = CARTESIAN_POINT ( 'NONE',  ( -500.0000000000000000, 250.0000000000000000, 5.000000000000000000 ) ) ;
#8 = VERTEX_POINT ( 'NONE', #171 ) ;
#9 = EDGE_CURVE ( 'NONE', #109, #8, #189, .T. ) ;
#10 = SURFACE_STYLE_USAGE ( .BOTH. , #147 ) ;
#11 = APPLICATION_PROTOCOL_DEFINITION ( 'draft international standard', 'automotive_design', 1998, #96 ) ;
#12 = ORIENTED_EDGE ( 'NONE', *, *, #167, .T. ) ;
#13 = VERTEX_POINT ( 'NONE', #120 ) ;
#14 = ADVANCED_BREP_SHAPE_REPRESENTATION ( '6520180_CNAJF00', ( #83, #201 ), #31 ) ;
#15 =( GEOMETRIC_REPRESENTATION_CONTEXT ( 3 ) GLOBAL_UNCERTAINTY_ASSIGNED_CONTEXT ( ( #180 ) ) GLOBAL_UNIT_ASSIGNED_CONTEXT ( ( #159, #77, #25 ) ) REPRESENTATION_CONTEXT ( 'NONE', 'WORKASPACE' ) );
#16 = PRESENTATION_LAYER_ASSIGNMENT (  '', '', ( #99 ) ) ;
#17 = VECTOR ( 'NONE', #157, 1000.000000000000000 ) ;
#18 = AXIS2_PLACEMENT_3D ( 'NONE', #61, #95, #128 ) ;
#19 = PLANE ( 'NONE',  #18 ) ;
#20 = CARTESIAN_POINT ( 'NONE',  ( 500.0000000000000000, 250.0000000000000000, 5.000000000000000000 ) ) ;
#21 = SURFACE_STYLE_FILL_AREA ( #144 ) ;
#22 = ORIENTED_EDGE ( 'NONE', *, *, #122, .F. ) ;
#23 = VERTEX_POINT ( 'NONE', #175 ) ;
#24 = DIRECTION ( 'NONE',  ( 0.0000000000000000000, 0.0000000000000000000, -1.000000000000000000 ) ) ;
#25 =( NAMED_UNIT ( * ) SI_UNIT ( $, .STERADIAN. ) SOLID_ANGLE_UNIT ( ) );
#26 = PLANE ( 'NONE',  #68 ) ;
#27 = VECTOR ( 'NONE', #72, 1000.000000000000000 ) ;
#28 =( GEOMETRIC_REPRESENTATION_CONTEXT ( 3 ) GLOBAL_UNCERTAINTY_ASSIGNED_CONTEXT ( ( #186 ) ) GLOBAL_UNIT_ASSIGNED_CONTEXT ( ( #129, #50, #40 ) ) REPRESENTATION_CONTEXT ( 'NONE', 'WORKASPACE' ) );
#29 = ADVANCED_FACE ( 'NONE', ( #58 ), #87, .F. ) ;
#30 = LINE ( 'NONE', #36, #105 ) ;
#31 =( GEOMETRIC_REPRESENTATION_CONTEXT ( 3 ) GLOBAL_UNCERTAINTY_ASSIGNED_CONTEXT ( ( #37 ) ) GLOBAL_UNIT_ASSIGNED_CONTEXT ( ( #42, #181, #130 ) ) REPRESENTATION_CONTEXT ( 'NONE', 'WORKASPACE' ) );
#32 = ORIENTED_EDGE ( 'NONE', *, *, #167, .F. ) ;
#33 = DIRECTION ( 'NONE',  ( 1.000000000000000000, 0.0000000000000000000, -0.0000000000000000000 ) ) ;
#34 = CARTESIAN_POINT ( 'NONE',  ( 500.0000000000000000, 250.0000000000000000, 5.000000000000000000 ) ) ;
#35 = DIRECTION ( 'NONE',  ( 0.0000000000000000000, 0.0000000000000000000, 1.000000000000000000 ) ) ;
#36 = CARTESIAN_POINT ( 'NONE',  ( -500.0000000000000000, -250.0000000000000000, 0.0000000000000000000 ) ) ;
#37 = UNCERTAINTY_MEASURE_WITH_UNIT (LENGTH_MEASURE( 1.000000000000000100E-005 ), #42, 'distance_accuracy_value', 'NONE');
#38 = VECTOR ( 'NONE', #191, 1000.000000000000000 ) ;
#39 = ORIENTED_EDGE ( 'NONE', *, *, #9, .T. ) ;
#40 =( NAMED_UNIT ( * ) SI_UNIT ( $, .STERADIAN. ) SOLID_ANGLE_UNIT ( ) );
#41 = DIRECTION ( 'NONE',  ( 1.000000000000000000, 0.0000000000000000000, 0.0000000000000000000 ) ) ;
#42 =( LENGTH_UNIT ( ) NAMED_UNIT ( * ) SI_UNIT ( .MILLI., .METRE. ) );
#43 = VECTOR ( 'NONE', #149, 1000.000000000000000 ) ;
#44 = FILL_AREA_STYLE_COLOUR ( '', #118 ) ;
#45 = DIRECTION ( 'NONE',  ( 0.0000000000000000000, 0.0000000000000000000, 1.000000000000000000 ) ) ;
#46 = ORIENTED_EDGE ( 'NONE', *, *, #155, .F. ) ;
#47 = ADVANCED_FACE ( 'NONE', ( #197 ), #19, .T. ) ;
#48 = ORIENTED_EDGE ( 'NONE', *, *, #122, .T. ) ;
#49 = EDGE_LOOP ( 'NONE', ( #202, #1, #22, #12 ) ) ;
#50 =( NAMED_UNIT ( * ) PLANE_ANGLE_UNIT ( ) SI_UNIT ( $, .RADIAN. ) );
#51 = DIRECTION ( 'NONE',  ( 0.0000000000000000000, -1.000000000000000000, 0.0000000000000000000 ) ) ;
#52 = VECTOR ( 'NONE', #142, 1000.000000000000000 ) ;
#53 = ORIENTED_EDGE ( 'NONE', *, *, #138, .F. ) ;
#54 = CARTESIAN_POINT ( 'NONE',  ( 500.0000000000000000, 250.0000000000000000, 5.000000000000000000 ) ) ;
#55 = CARTESIAN_POINT ( 'NONE',  ( 500.0000000000000000, -250.0000000000000000, 0.0000000000000000000 ) ) ;
#56 = CARTESIAN_POINT ( 'NONE',  ( -500.0000000000000000, 250.0000000000000000, 0.0000000000000000000 ) ) ;
#57 = CARTESIAN_POINT ( 'NONE',  ( -500.0000000000000000, 250.0000000000000000, 5.000000000000000000 ) ) ;
#58 = FACE_OUTER_BOUND ( 'NONE', #78, .T. ) ;
#59 = ORIENTED_EDGE ( 'NONE', *, *, #123, .T. ) ;
#60 = VECTOR ( 'NONE', #5, 1000.000000000000000 ) ;
#61 = CARTESIAN_POINT ( 'NONE',  ( -500.0000000000000000, -250.0000000000000000, 5.000000000000000000 ) ) ;
#62 = EDGE_CURVE ( 'NONE', #152, #23, #30, .T. ) ;
#63 = DIRECTION ( 'NONE',  ( 0.0000000000000000000, 0.0000000000000000000, 1.000000000000000000 ) ) ;
#64 = CARTESIAN_POINT ( 'NONE',  ( -500.0000000000000000, 250.0000000000000000, 5.000000000000000000 ) ) ;
#65 = SURFACE_STYLE_USAGE ( .BOTH. , #156 ) ;
#66 = DIRECTION ( 'NONE',  ( -0.0000000000000000000, -0.0000000000000000000, 1.000000000000000000 ) ) ;
#67 = LINE ( 'NONE', #192, #60 ) ;
#68 = AXIS2_PLACEMENT_3D ( 'NONE', #57, #160, #24 ) ;
#69 = ORIENTED_EDGE ( 'NONE', *, *, #123, .F. ) ;
#70 = SHAPE_DEFINITION_REPRESENTATION ( #195, #14 ) ;
#71 = VECTOR ( 'NONE', #112, 1000.000000000000000 ) ;
#72 = DIRECTION ( 'NONE',  ( 0.0000000000000000000, 1.000000000000000000, -0.0000000000000000000 ) ) ;
#73 = CARTESIAN_POINT ( 'NONE',  ( 500.0000000000000000, -250.0000000000000000, 5.000000000000000000 ) ) ;
#74 = VECTOR ( 'NONE', #178, 1000.000000000000000 ) ;
#75 = ORIENTED_EDGE ( 'NONE', *, *, #85, .T. ) ;
#76 = DIRECTION ( 'NONE',  ( 0.0000000000000000000, -1.000000000000000000, -0.0000000000000000000 ) ) ;
#77 =( NAMED_UNIT ( * ) PLANE_ANGLE_UNIT ( ) SI_UNIT ( $, .RADIAN. ) );
#78 = EDGE_LOOP ( 'NONE', ( #48, #69, #53, #39 ) ) ;
#79 = CARTESIAN_POINT ( 'NONE',  ( -500.0000000000000000, 250.0000000000000000, 0.0000000000000000000 ) ) ;
#80 = PRODUCT_CONTEXT ( 'NONE', #179, 'mechanical' ) ;
#81 = FILL_AREA_STYLE ('',( #44 ) ) ;
#82 = AXIS2_PLACEMENT_3D ( 'NONE', #139, #35, #33 ) ;
#83 = MANIFOLD_SOLID_BREP ( 'Importiert1', #89 ) ;
#84 = ORIENTED_EDGE ( 'NONE', *, *, #88, .T. ) ;
#85 = EDGE_CURVE ( 'NONE', #168, #23, #140, .T. ) ;
#86 = EDGE_LOOP ( 'NONE', ( #32, #101, #127, #169 ) ) ;
#87 = PLANE ( 'NONE',  #2 ) ;
#88 = EDGE_CURVE ( 'NONE', #13, #168, #92, .T. ) ;
#89 = CLOSED_SHELL ( 'NONE', ( #100, #185, #150, #29, #133, #47 ) ) ;
#90 = MECHANICAL_DESIGN_GEOMETRIC_PRESENTATION_REPRESENTATION (  '', ( #145 ), #15 ) ;
#91 = DIRECTION ( 'NONE',  ( -0.0000000000000000000, 0.0000000000000000000, 1.000000000000000000 ) ) ;
#92 = LINE ( 'NONE', #64, #52 ) ;
#93 = ORIENTED_EDGE ( 'NONE', *, *, #88, .F. ) ;
#94 = FILL_AREA_STYLE_COLOUR ( '', #97 ) ;
#95 = DIRECTION ( 'NONE',  ( 0.0000000000000000000, 0.0000000000000000000, 1.000000000000000000 ) ) ;
#96 = APPLICATION_CONTEXT ( 'automotive_design' ) ;
#97 = COLOUR_RGB ( '',1.000000000000000000, 1.000000000000000000, 1.000000000000000000 ) ;
#98 = ORIENTED_EDGE ( 'NONE', *, *, #172, .F. ) ;
#99 = STYLED_ITEM ( 'NONE', ( #108 ), #83 ) ;
#100 = ADVANCED_FACE ( 'NONE', ( #119 ), #106, .F. ) ;
#101 = ORIENTED_EDGE ( 'NONE', *, *, #9, .F. ) ;
#102 = VECTOR ( 'NONE', #91, 1000.000000000000000 ) ;
#103 = AXIS2_PLACEMENT_3D ( 'NONE', #193, #190, #3 ) ;
#104 = CARTESIAN_POINT ( 'NONE',  ( 500.0000000000000000, -250.0000000000000000, 5.000000000000000000 ) ) ;
#105 = VECTOR ( 'NONE', #76, 1000.000000000000000 ) ;
#106 = PLANE ( 'NONE',  #82 ) ;
#107 = DIRECTION ( 'NONE',  ( 0.0000000000000000000, 0.0000000000000000000, 1.000000000000000000 ) ) ;
#108 = PRESENTATION_STYLE_ASSIGNMENT (( #65 ) ) ;
#109 = VERTEX_POINT ( 'NONE', #124 ) ;
#110 = DIRECTION ( 'NONE',  ( -1.000000000000000000, 0.0000000000000000000, 0.0000000000000000000 ) ) ;
#111 = PRODUCT_DEFINITION_CONTEXT ( 'detailed design', #96, 'design' ) ;
#112 = DIRECTION ( 'NONE',  ( 1.000000000000000000, 0.0000000000000000000, -0.0000000000000000000 ) ) ;
#113 = CARTESIAN_POINT ( 'NONE',  ( -500.0000000000000000, -250.0000000000000000, 5.000000000000000000 ) ) ;
#114 = LINE ( 'NONE', #196, #74 ) ;
#115 = PRODUCT ( '6520180_CNAJF00', '6520180_CNAJF00', '', ( #80 ) ) ;
#116 = VECTOR ( 'NONE', #66, 1000.000000000000000 ) ;
#117 = EDGE_LOOP ( 'NONE', ( #59, #162, #84, #136 ) ) ;
#118 = COLOUR_RGB ( '',0.7529411764705882200, 0.7529411764705882200, 0.7529411764705882200 ) ;
#119 = FACE_OUTER_BOUND ( 'NONE', #86, .T. ) ;
#120 = CARTESIAN_POINT ( 'NONE',  ( -500.0000000000000000, 250.0000000000000000, 5.000000000000000000 ) ) ;
#121 = EDGE_LOOP ( 'NONE', ( #184, #46, #75, #4 ) ) ;
#122 = EDGE_CURVE ( 'NONE', #8, #137, #135, .T. ) ;
#123 = EDGE_CURVE ( 'NONE', #141, #137, #148, .T. ) ;
#124 = CARTESIAN_POINT ( 'NONE',  ( 500.0000000000000000, -250.0000000000000000, 0.0000000000000000000 ) ) ;
#125 = PLANE ( 'NONE',  #183 ) ;
#126 = VECTOR ( 'NONE', #107, 1000.000000000000000 ) ;
#127 = ORIENTED_EDGE ( 'NONE', *, *, #151, .F. ) ;
#128 = DIRECTION ( 'NONE',  ( 1.000000000000000000, 0.0000000000000000000, -0.0000000000000000000 ) ) ;
#129 =( LENGTH_UNIT ( ) NAMED_UNIT ( * ) SI_UNIT ( .MILLI., .METRE. ) );
#130 =( NAMED_UNIT ( * ) SI_UNIT ( $, .STERADIAN. ) SOLID_ANGLE_UNIT ( ) );
#131 = FACE_OUTER_BOUND ( 'NONE', #49, .T. ) ;
#132 = EDGE_LOOP ( 'NONE', ( #177, #93, #98, #194 ) ) ;
#133 = ADVANCED_FACE ( 'NONE', ( #166 ), #188, .F. ) ;
#134 = MECHANICAL_DESIGN_GEOMETRIC_PRESENTATION_REPRESENTATION (  '', ( #99 ), #28 ) ;
#135 = LINE ( 'NONE', #20, #102 ) ;
#136 = ORIENTED_EDGE ( 'NONE', *, *, #155, .T. ) ;
#137 = VERTEX_POINT ( 'NONE', #34 ) ;
#138 = EDGE_CURVE ( 'NONE', #109, #141, #173, .T. ) ;
#139 = CARTESIAN_POINT ( 'NONE',  ( -500.0000000000000000, -250.0000000000000000, 0.0000000000000000000 ) ) ;
#140 = LINE ( 'NONE', #174, #17 ) ;
#141 = VERTEX_POINT ( 'NONE', #73 ) ;
#142 = DIRECTION ( 'NONE',  ( 0.0000000000000000000, -1.000000000000000000, -0.0000000000000000000 ) ) ;
#143 = CARTESIAN_POINT ( 'NONE',  ( -500.0000000000000000, -250.0000000000000000, 5.000000000000000000 ) ) ;
#144 = FILL_AREA_STYLE ('',( #94 ) ) ;
#145 = STYLED_ITEM ( 'NONE', ( #187 ), #14 ) ;
#146 = APPLICATION_PROTOCOL_DEFINITION ( 'draft international standard', 'automotive_design', 1998, #179 ) ;
#147 = SURFACE_SIDE_STYLE ('',( #165 ) ) ;
#148 = LINE ( 'NONE', #153, #27 ) ;
#149 = DIRECTION ( 'NONE',  ( -1.000000000000000000, -0.0000000000000000000, 0.0000000000000000000 ) ) ;
#150 = ADVANCED_FACE ( 'NONE', ( #131 ), #125, .F. ) ;
#151 = EDGE_CURVE ( 'NONE', #23, #109, #67, .T. ) ;
#152 = VERTEX_POINT ( 'NONE', #56 ) ;
#153 = CARTESIAN_POINT ( 'NONE',  ( 500.0000000000000000, -250.0000000000000000, 5.000000000000000000 ) ) ;
#154 = DIRECTION ( 'NONE',  ( 0.0000000000000000000, -0.0000000000000000000, -1.000000000000000000 ) ) ;
#155 = EDGE_CURVE ( 'NONE', #168, #141, #182, .T. ) ;
#156 = SURFACE_SIDE_STYLE ('',( #21 ) ) ;
#157 = DIRECTION ( 'NONE',  ( 0.0000000000000000000, 0.0000000000000000000, -1.000000000000000000 ) ) ;
#158 = PRODUCT_DEFINITION_FORMATION_WITH_SPECIFIED_SOURCE ( 'ANY', '', #115, .NOT_KNOWN. ) ;
#159 =( LENGTH_UNIT ( ) NAMED_UNIT ( * ) SI_UNIT ( .MILLI., .METRE. ) );
#160 = DIRECTION ( 'NONE',  ( 1.000000000000000000, 0.0000000000000000000, 0.0000000000000000000 ) ) ;
#161 = LINE ( 'NONE', #79, #43 ) ;
#162 = ORIENTED_EDGE ( 'NONE', *, *, #164, .T. ) ;
#163 = PRODUCT_DEFINITION ( 'UNKNOWN', '', #158, #111 ) ;
#164 = EDGE_CURVE ( 'NONE', #137, #13, #114, .T. ) ;
#165 = SURFACE_STYLE_FILL_AREA ( #81 ) ;
#166 = FACE_OUTER_BOUND ( 'NONE', #121, .T. ) ;
#167 = EDGE_CURVE ( 'NONE', #8, #152, #161, .T. ) ;
#168 = VERTEX_POINT ( 'NONE', #113 ) ;
#169 = ORIENTED_EDGE ( 'NONE', *, *, #62, .F. ) ;
#170 = PRESENTATION_LAYER_ASSIGNMENT (  '', '', ( #145 ) ) ;
#171 = CARTESIAN_POINT ( 'NONE',  ( 500.0000000000000000, 250.0000000000000000, 0.0000000000000000000 ) ) ;
#172 = EDGE_CURVE ( 'NONE', #152, #13, #199, .T. ) ;
#173 = LINE ( 'NONE', #6, #126 ) ;
#174 = CARTESIAN_POINT ( 'NONE',  ( -500.0000000000000000, -250.0000000000000000, 5.000000000000000000 ) ) ;
#175 = CARTESIAN_POINT ( 'NONE',  ( -500.0000000000000000, -250.0000000000000000, 0.0000000000000000000 ) ) ;
#176 = PRODUCT_RELATED_PRODUCT_CATEGORY ( 'part', '', ( #115 ) ) ;
#177 = ORIENTED_EDGE ( 'NONE', *, *, #85, .F. ) ;
#178 = DIRECTION ( 'NONE',  ( -1.000000000000000000, -0.0000000000000000000, -0.0000000000000000000 ) ) ;
#179 = APPLICATION_CONTEXT ( 'automotive_design' ) ;
#180 = UNCERTAINTY_MEASURE_WITH_UNIT (LENGTH_MEASURE( 1.000000000000000100E-005 ), #159, 'distance_accuracy_value', 'NONE');
#181 =( NAMED_UNIT ( * ) PLANE_ANGLE_UNIT ( ) SI_UNIT ( $, .RADIAN. ) );
#182 = LINE ( 'NONE', #143, #71 ) ;
#183 = AXIS2_PLACEMENT_3D ( 'NONE', #54, #51, #154 ) ;
#184 = ORIENTED_EDGE ( 'NONE', *, *, #138, .T. ) ;
#185 = ADVANCED_FACE ( 'NONE', ( #200 ), #26, .F. ) ;
#186 = UNCERTAINTY_MEASURE_WITH_UNIT (LENGTH_MEASURE( 1.000000000000000100E-005 ), #129, 'distance_accuracy_value', 'NONE');
#187 = PRESENTATION_STYLE_ASSIGNMENT (( #10 ) ) ;
#188 = PLANE ( 'NONE',  #103 ) ;
#189 = LINE ( 'NONE', #55, #38 ) ;
#190 = DIRECTION ( 'NONE',  ( 0.0000000000000000000, 1.000000000000000000, 0.0000000000000000000 ) ) ;
#191 = DIRECTION ( 'NONE',  ( -0.0000000000000000000, 1.000000000000000000, 0.0000000000000000000 ) ) ;
#192 = CARTESIAN_POINT ( 'NONE',  ( -500.0000000000000000, -250.0000000000000000, 0.0000000000000000000 ) ) ;
#193 = CARTESIAN_POINT ( 'NONE',  ( -500.0000000000000000, -250.0000000000000000, 5.000000000000000000 ) ) ;
#194 = ORIENTED_EDGE ( 'NONE', *, *, #62, .T. ) ;
#195 = PRODUCT_DEFINITION_SHAPE ( 'NONE', 'NONE',  #163 ) ;
#196 = CARTESIAN_POINT ( 'NONE',  ( 500.0000000000000000, 250.0000000000000000, 5.000000000000000000 ) ) ;
#197 = FACE_OUTER_BOUND ( 'NONE', #117, .T. ) ;
#198 = CARTESIAN_POINT ( 'NONE',  ( 0.0000000000000000000, 0.0000000000000000000, 0.0000000000000000000 ) ) ;
#199 = LINE ( 'NONE', #7, #116 ) ;
#200 = FACE_OUTER_BOUND ( 'NONE', #132, .T. ) ;
#201 = AXIS2_PLACEMENT_3D ( 'NONE', #198, #45, #41 ) ;
#202 = ORIENTED_EDGE ( 'NONE', *, *, #172, .T. ) ;
ENDSEC;
END-ISO-10303-21;
