ISO-10303-21;
HEADER;
FILE_DESCRIPTION (( 'STEP AP214' ),
    '1' );
FILE_NAME ('6520221',
    '2019-02-01T12:48:26',
    ( '' ),
    ('JUGARD+KÜNSTNER GmbH'),
    'SwSTEP 2.0',
    'SolidWorks 2017',
    '' );
FILE_SCHEMA (( 'AUTOMOTIVE_DESIGN' ));
ENDSEC;

DATA;
#1 = LINE ( 'NONE', #75, #163 ) ;
#2 = ORIENTED_EDGE ( 'NONE', *, *, #155, .F. ) ;
#3 = CARTESIAN_POINT ( 'NONE',  ( -500.0000000000000000, -250.0000000000000000, -7.000000000000000000 ) ) ;
#4 = VERTEX_POINT ( 'NONE', #127 ) ;
#5 = EDGE_CURVE ( 'NONE', #132, #26, #114, .T. ) ;
#6 = DIRECTION ( 'NONE',  ( 1.000000000000000000, 0.0000000000000000000, -0.0000000000000000000 ) ) ;
#7 = ORIENTED_EDGE ( 'NONE', *, *, #60, .T. ) ;
#8 = PLANE ( 'NONE',  #181 ) ;
#9 = PRODUCT_DEFINITION_SHAPE ( 'NONE', 'NONE',  #126 ) ;
#10 = DIRECTION ( 'NONE',  ( 0.0000000000000000000, -1.000000000000000000, -0.0000000000000000000 ) ) ;
#11 = FILL_AREA_STYLE ('',( #14 ) ) ;
#12 = LINE ( 'NONE', #20, #82 ) ;
#13 = DIRECTION ( 'NONE',  ( 0.0000000000000000000, 0.0000000000000000000, 1.000000000000000000 ) ) ;
#14 = FILL_AREA_STYLE_COLOUR ( '', #140 ) ;
#15 = VECTOR ( 'NONE', #98, 1000.000000000000000 ) ;
#16 = EDGE_CURVE ( 'NONE', #18, #122, #166, .T. ) ;
#17 = ORIENTED_EDGE ( 'NONE', *, *, #97, .T. ) ;
#18 = VERTEX_POINT ( 'NONE', #33 ) ;
#19 = CARTESIAN_POINT ( 'NONE',  ( 500.0000000000000000, -250.0000000000000000, -7.000000000000000000 ) ) ;
#20 = CARTESIAN_POINT ( 'NONE',  ( 500.0000000000000000, 250.0000000000000000, -3.000000000000000000 ) ) ;
#21 = DIRECTION ( 'NONE',  ( 0.0000000000000000000, 1.000000000000000000, 0.0000000000000000000 ) ) ;
#22 = APPLICATION_CONTEXT ( 'automotive_design' ) ;
#23 = DIRECTION ( 'NONE',  ( 1.000000000000000000, 0.0000000000000000000, 0.0000000000000000000 ) ) ;
#24 = ADVANCED_FACE ( 'NONE', ( #125 ), #27, .T. ) ;
#25 = ORIENTED_EDGE ( 'NONE', *, *, #159, .F. ) ;
#26 = VERTEX_POINT ( 'NONE', #3 ) ;
#27 = PLANE ( 'NONE',  #65 ) ;
#28 = ORIENTED_EDGE ( 'NONE', *, *, #16, .F. ) ;
#29 = CARTESIAN_POINT ( 'NONE',  ( -500.0000000000000000, 250.0000000000000000, -7.000000000000000000 ) ) ;
#30 = DIRECTION ( 'NONE',  ( 1.000000000000000000, 0.0000000000000000000, 0.0000000000000000000 ) ) ;
#31 = CARTESIAN_POINT ( 'NONE',  ( 500.0000000000000000, -250.0000000000000000, -3.000000000000000000 ) ) ;
#32 = VECTOR ( 'NONE', #47, 1000.000000000000000 ) ;
#33 = CARTESIAN_POINT ( 'NONE',  ( 500.0000000000000000, 250.0000000000000000, -7.000000000000000000 ) ) ;
#34 = EDGE_CURVE ( 'NONE', #4, #86, #58, .T. ) ;
#35 = CARTESIAN_POINT ( 'NONE',  ( 0.0000000000000000000, 0.0000000000000000000, 0.0000000000000000000 ) ) ;
#36 = FILL_AREA_STYLE ('',( #76 ) ) ;
#37 = SURFACE_SIDE_STYLE ('',( #193 ) ) ;
#38 = ORIENTED_EDGE ( 'NONE', *, *, #113, .F. ) ;
#39 = FACE_OUTER_BOUND ( 'NONE', #118, .T. ) ;
#40 = CARTESIAN_POINT ( 'NONE',  ( 500.0000000000000000, 250.0000000000000000, -3.000000000000000000 ) ) ;
#41 = FACE_OUTER_BOUND ( 'NONE', #154, .T. ) ;
#42 = AXIS2_PLACEMENT_3D ( 'NONE', #195, #21, #96 ) ;
#43 = ADVANCED_BREP_SHAPE_REPRESENTATION ( '6520221_CNAJF00', ( #168, #74 ), #71 ) ;
#44 = CARTESIAN_POINT ( 'NONE',  ( 500.0000000000000000, -250.0000000000000000, -3.000000000000000000 ) ) ;
#45 = CARTESIAN_POINT ( 'NONE',  ( -500.0000000000000000, 250.0000000000000000, -7.000000000000000000 ) ) ;
#46 = VECTOR ( 'NONE', #10, 1000.000000000000000 ) ;
#47 = DIRECTION ( 'NONE',  ( 0.0000000000000000000, 0.0000000000000000000, 1.000000000000000000 ) ) ;
#48 = DIRECTION ( 'NONE',  ( 0.0000000000000000000, 0.0000000000000000000, 1.000000000000000000 ) ) ;
#49 = CARTESIAN_POINT ( 'NONE',  ( 500.0000000000000000, 250.0000000000000000, -3.000000000000000000 ) ) ;
#50 = COLOUR_RGB ( '',0.7764705882352941300, 0.7921568627450980000, 0.7803921568627451000 ) ;
#51 = VECTOR ( 'NONE', #192, 1000.000000000000000 ) ;
#52 =( NAMED_UNIT ( * ) PLANE_ANGLE_UNIT ( ) SI_UNIT ( $, .RADIAN. ) );
#53 = APPLICATION_CONTEXT ( 'automotive_design' ) ;
#54 = ADVANCED_FACE ( 'NONE', ( #41 ), #8, .F. ) ;
#55 = APPLICATION_PROTOCOL_DEFINITION ( 'draft international standard', 'automotive_design', 1998, #22 ) ;
#56 = ADVANCED_FACE ( 'NONE', ( #39 ), #161, .F. ) ;
#57 = EDGE_CURVE ( 'NONE', #86, #182, #109, .T. ) ;
#58 = LINE ( 'NONE', #145, #46 ) ;
#59 = PRESENTATION_STYLE_ASSIGNMENT (( #103 ) ) ;
#60 = EDGE_CURVE ( 'NONE', #202, #182, #112, .T. ) ;
#61 = DIRECTION ( 'NONE',  ( 0.0000000000000000000, -1.000000000000000000, 0.0000000000000000000 ) ) ;
#62 = DIRECTION ( 'NONE',  ( -1.000000000000000000, 0.0000000000000000000, 0.0000000000000000000 ) ) ;
#63 = DIRECTION ( 'NONE',  ( 0.0000000000000000000, 0.0000000000000000000, 1.000000000000000000 ) ) ;
#64 = ORIENTED_EDGE ( 'NONE', *, *, #97, .F. ) ;
#65 = AXIS2_PLACEMENT_3D ( 'NONE', #130, #117, #144 ) ;
#66 =( LENGTH_UNIT ( ) NAMED_UNIT ( * ) SI_UNIT ( .MILLI., .METRE. ) );
#67 = VECTOR ( 'NONE', #131, 1000.000000000000000 ) ;
#68 = ORIENTED_EDGE ( 'NONE', *, *, #139, .F. ) ;
#69 = EDGE_CURVE ( 'NONE', #18, #132, #92, .T. ) ;
#70 = ORIENTED_EDGE ( 'NONE', *, *, #139, .T. ) ;
#71 =( GEOMETRIC_REPRESENTATION_CONTEXT ( 3 ) GLOBAL_UNCERTAINTY_ASSIGNED_CONTEXT ( ( #78 ) ) GLOBAL_UNIT_ASSIGNED_CONTEXT ( ( #106, #180, #179 ) ) REPRESENTATION_CONTEXT ( 'NONE', 'WORKASPACE' ) );
#72 = AXIS2_PLACEMENT_3D ( 'NONE', #135, #61, #165 ) ;
#73 = ORIENTED_EDGE ( 'NONE', *, *, #159, .T. ) ;
#74 = AXIS2_PLACEMENT_3D ( 'NONE', #35, #13, #23 ) ;
#75 = CARTESIAN_POINT ( 'NONE',  ( -500.0000000000000000, -250.0000000000000000, -3.000000000000000000 ) ) ;
#76 = FILL_AREA_STYLE_COLOUR ( '', #50 ) ;
#77 = EDGE_LOOP ( 'NONE', ( #169, #17, #121, #187 ) ) ;
#78 = UNCERTAINTY_MEASURE_WITH_UNIT (LENGTH_MEASURE( 1.000000000000000100E-005 ), #106, 'distance_accuracy_value', 'NONE');
#79 = CARTESIAN_POINT ( 'NONE',  ( -500.0000000000000000, 250.0000000000000000, -3.000000000000000000 ) ) ;
#80 = AXIS2_PLACEMENT_3D ( 'NONE', #148, #48, #133 ) ;
#81 = DIRECTION ( 'NONE',  ( 0.0000000000000000000, 0.0000000000000000000, -1.000000000000000000 ) ) ;
#82 = VECTOR ( 'NONE', #134, 1000.000000000000000 ) ;
#83 =( NAMED_UNIT ( * ) SI_UNIT ( $, .STERADIAN. ) SOLID_ANGLE_UNIT ( ) );
#84 = STYLED_ITEM ( 'NONE', ( #59 ), #168 ) ;
#85 = LINE ( 'NONE', #191, #157 ) ;
#86 = VERTEX_POINT ( 'NONE', #177 ) ;
#87 = ORIENTED_EDGE ( 'NONE', *, *, #60, .F. ) ;
#88 = ADVANCED_FACE ( 'NONE', ( #171 ), #93, .F. ) ;
#89 = PRODUCT_DEFINITION_FORMATION_WITH_SPECIFIED_SOURCE ( 'ANY', '', #137, .NOT_KNOWN. ) ;
#90 = VECTOR ( 'NONE', #160, 1000.000000000000000 ) ;
#91 = PRESENTATION_LAYER_ASSIGNMENT (  '', '', ( #84 ) ) ;
#92 = LINE ( 'NONE', #29, #51 ) ;
#93 = PLANE ( 'NONE',  #42 ) ;
#94 = FACE_OUTER_BOUND ( 'NONE', #101, .T. ) ;
#95 = DIRECTION ( 'NONE',  ( -0.0000000000000000000, 1.000000000000000000, 0.0000000000000000000 ) ) ;
#96 = DIRECTION ( 'NONE',  ( 0.0000000000000000000, -0.0000000000000000000, 1.000000000000000000 ) ) ;
#97 = EDGE_CURVE ( 'NONE', #122, #4, #12, .T. ) ;
#98 = DIRECTION ( 'NONE',  ( 1.000000000000000000, 0.0000000000000000000, -0.0000000000000000000 ) ) ;
#99 = CARTESIAN_POINT ( 'NONE',  ( 500.0000000000000000, -250.0000000000000000, -3.000000000000000000 ) ) ;
#100 = PRESENTATION_STYLE_ASSIGNMENT (( #150 ) ) ;
#101 = EDGE_LOOP ( 'NONE', ( #73, #64, #28, #156 ) ) ;
#102 = CARTESIAN_POINT ( 'NONE',  ( 500.0000000000000000, -250.0000000000000000, -7.000000000000000000 ) ) ;
#103 = SURFACE_STYLE_USAGE ( .BOTH. , #196 ) ;
#104 =( LENGTH_UNIT ( ) NAMED_UNIT ( * ) SI_UNIT ( .MILLI., .METRE. ) );
#105 = ADVANCED_FACE ( 'NONE', ( #94 ), #162, .F. ) ;
#106 =( LENGTH_UNIT ( ) NAMED_UNIT ( * ) SI_UNIT ( .MILLI., .METRE. ) );
#107 = LINE ( 'NONE', #19, #116 ) ;
#108 =( NAMED_UNIT ( * ) SI_UNIT ( $, .STERADIAN. ) SOLID_ANGLE_UNIT ( ) );
#109 = LINE ( 'NONE', #176, #15 ) ;
#110 = MECHANICAL_DESIGN_GEOMETRIC_PRESENTATION_REPRESENTATION (  '', ( #84 ), #119 ) ;
#111 = VECTOR ( 'NONE', #174, 1000.000000000000000 ) ;
#112 = LINE ( 'NONE', #99, #32 ) ;
#113 = EDGE_CURVE ( 'NONE', #86, #26, #1, .T. ) ;
#114 = LINE ( 'NONE', #129, #164 ) ;
#115 = CARTESIAN_POINT ( 'NONE',  ( -500.0000000000000000, 250.0000000000000000, -3.000000000000000000 ) ) ;
#116 = VECTOR ( 'NONE', #95, 1000.000000000000000 ) ;
#117 = DIRECTION ( 'NONE',  ( 0.0000000000000000000, 0.0000000000000000000, 1.000000000000000000 ) ) ;
#118 = EDGE_LOOP ( 'NONE', ( #172, #2, #68, #141 ) ) ;
#119 =( GEOMETRIC_REPRESENTATION_CONTEXT ( 3 ) GLOBAL_UNCERTAINTY_ASSIGNED_CONTEXT ( ( #183 ) ) GLOBAL_UNIT_ASSIGNED_CONTEXT ( ( #66, #152, #108 ) ) REPRESENTATION_CONTEXT ( 'NONE', 'WORKASPACE' ) );
#120 = PRODUCT_CONTEXT ( 'NONE', #53, 'mechanical' ) ;
#121 = ORIENTED_EDGE ( 'NONE', *, *, #34, .T. ) ;
#122 = VERTEX_POINT ( 'NONE', #49 ) ;
#123 = PRODUCT_DEFINITION_CONTEXT ( 'detailed design', #22, 'design' ) ;
#124 = UNCERTAINTY_MEASURE_WITH_UNIT (LENGTH_MEASURE( 1.000000000000000100E-005 ), #104, 'distance_accuracy_value', 'NONE');
#125 = FACE_OUTER_BOUND ( 'NONE', #77, .T. ) ;
#126 = PRODUCT_DEFINITION ( 'UNKNOWN', '', #89, #123 ) ;
#127 = CARTESIAN_POINT ( 'NONE',  ( -500.0000000000000000, 250.0000000000000000, -3.000000000000000000 ) ) ;
#128 = ORIENTED_EDGE ( 'NONE', *, *, #5, .T. ) ;
#129 = CARTESIAN_POINT ( 'NONE',  ( -500.0000000000000000, -250.0000000000000000, -7.000000000000000000 ) ) ;
#130 = CARTESIAN_POINT ( 'NONE',  ( -500.0000000000000000, -250.0000000000000000, -3.000000000000000000 ) ) ;
#131 = DIRECTION ( 'NONE',  ( -0.0000000000000000000, -0.0000000000000000000, 1.000000000000000000 ) ) ;
#132 = VERTEX_POINT ( 'NONE', #45 ) ;
#133 = DIRECTION ( 'NONE',  ( 1.000000000000000000, 0.0000000000000000000, -0.0000000000000000000 ) ) ;
#134 = DIRECTION ( 'NONE',  ( -1.000000000000000000, -0.0000000000000000000, -0.0000000000000000000 ) ) ;
#135 = CARTESIAN_POINT ( 'NONE',  ( 500.0000000000000000, 250.0000000000000000, -3.000000000000000000 ) ) ;
#136 = ORIENTED_EDGE ( 'NONE', *, *, #34, .F. ) ;
#137 = PRODUCT ( '6520221_CNAJF00', '6520221_CNAJF00', '', ( #120 ) ) ;
#138 = ORIENTED_EDGE ( 'NONE', *, *, #153, .F. ) ;
#139 = EDGE_CURVE ( 'NONE', #26, #202, #85, .T. ) ;
#140 = COLOUR_RGB ( '',0.7529411764705882200, 0.7529411764705882200, 0.7529411764705882200 ) ;
#141 = ORIENTED_EDGE ( 'NONE', *, *, #5, .F. ) ;
#142 = DIRECTION ( 'NONE',  ( 0.0000000000000000000, -1.000000000000000000, -0.0000000000000000000 ) ) ;
#143 = AXIS2_PLACEMENT_3D ( 'NONE', #115, #30, #81 ) ;
#144 = DIRECTION ( 'NONE',  ( 1.000000000000000000, 0.0000000000000000000, -0.0000000000000000000 ) ) ;
#145 = CARTESIAN_POINT ( 'NONE',  ( -500.0000000000000000, 250.0000000000000000, -3.000000000000000000 ) ) ;
#146 = FACE_OUTER_BOUND ( 'NONE', #194, .T. ) ;
#147 = ORIENTED_EDGE ( 'NONE', *, *, #57, .F. ) ;
#148 = CARTESIAN_POINT ( 'NONE',  ( -500.0000000000000000, -250.0000000000000000, -7.000000000000000000 ) ) ;
#149 = STYLED_ITEM ( 'NONE', ( #100 ), #43 ) ;
#150 = SURFACE_STYLE_USAGE ( .BOTH. , #37 ) ;
#151 = SURFACE_STYLE_FILL_AREA ( #36 ) ;
#152 =( NAMED_UNIT ( * ) PLANE_ANGLE_UNIT ( ) SI_UNIT ( $, .RADIAN. ) );
#153 = EDGE_CURVE ( 'NONE', #182, #122, #189, .T. ) ;
#154 = EDGE_LOOP ( 'NONE', ( #198, #138, #87, #200 ) ) ;
#155 = EDGE_CURVE ( 'NONE', #202, #18, #107, .T. ) ;
#156 = ORIENTED_EDGE ( 'NONE', *, *, #69, .T. ) ;
#157 = VECTOR ( 'NONE', #6, 1000.000000000000000 ) ;
#158 = ORIENTED_EDGE ( 'NONE', *, *, #113, .T. ) ;
#159 = EDGE_CURVE ( 'NONE', #132, #4, #186, .T. ) ;
#160 = DIRECTION ( 'NONE',  ( -0.0000000000000000000, 0.0000000000000000000, 1.000000000000000000 ) ) ;
#161 = PLANE ( 'NONE',  #80 ) ;
#162 = PLANE ( 'NONE',  #72 ) ;
#163 = VECTOR ( 'NONE', #175, 1000.000000000000000 ) ;
#164 = VECTOR ( 'NONE', #142, 1000.000000000000000 ) ;
#165 = DIRECTION ( 'NONE',  ( 0.0000000000000000000, -0.0000000000000000000, -1.000000000000000000 ) ) ;
#166 = LINE ( 'NONE', #40, #90 ) ;
#167 = ADVANCED_FACE ( 'NONE', ( #146 ), #190, .F. ) ;
#168 = MANIFOLD_SOLID_BREP ( 'Importiert1', #173 ) ;
#169 = ORIENTED_EDGE ( 'NONE', *, *, #153, .T. ) ;
#170 = PRESENTATION_LAYER_ASSIGNMENT (  '', '', ( #149 ) ) ;
#171 = FACE_OUTER_BOUND ( 'NONE', #178, .T. ) ;
#172 = ORIENTED_EDGE ( 'NONE', *, *, #69, .F. ) ;
#173 = CLOSED_SHELL ( 'NONE', ( #56, #167, #105, #54, #88, #24 ) ) ;
#174 = DIRECTION ( 'NONE',  ( 0.0000000000000000000, 1.000000000000000000, -0.0000000000000000000 ) ) ;
#175 = DIRECTION ( 'NONE',  ( 0.0000000000000000000, 0.0000000000000000000, -1.000000000000000000 ) ) ;
#176 = CARTESIAN_POINT ( 'NONE',  ( -500.0000000000000000, -250.0000000000000000, -3.000000000000000000 ) ) ;
#177 = CARTESIAN_POINT ( 'NONE',  ( -500.0000000000000000, -250.0000000000000000, -3.000000000000000000 ) ) ;
#178 = EDGE_LOOP ( 'NONE', ( #7, #147, #158, #70 ) ) ;
#179 =( NAMED_UNIT ( * ) SI_UNIT ( $, .STERADIAN. ) SOLID_ANGLE_UNIT ( ) );
#180 =( NAMED_UNIT ( * ) PLANE_ANGLE_UNIT ( ) SI_UNIT ( $, .RADIAN. ) );
#181 = AXIS2_PLACEMENT_3D ( 'NONE', #44, #62, #63 ) ;
#182 = VERTEX_POINT ( 'NONE', #197 ) ;
#183 = UNCERTAINTY_MEASURE_WITH_UNIT (LENGTH_MEASURE( 1.000000000000000100E-005 ), #66, 'distance_accuracy_value', 'NONE');
#184 = PRODUCT_RELATED_PRODUCT_CATEGORY ( 'part', '', ( #137 ) ) ;
#185 = SHAPE_DEFINITION_REPRESENTATION ( #9, #43 ) ;
#186 = LINE ( 'NONE', #79, #67 ) ;
#187 = ORIENTED_EDGE ( 'NONE', *, *, #57, .T. ) ;
#188 = MECHANICAL_DESIGN_GEOMETRIC_PRESENTATION_REPRESENTATION (  '', ( #149 ), #201 ) ;
#189 = LINE ( 'NONE', #31, #111 ) ;
#190 = PLANE ( 'NONE',  #143 ) ;
#191 = CARTESIAN_POINT ( 'NONE',  ( -500.0000000000000000, -250.0000000000000000, -7.000000000000000000 ) ) ;
#192 = DIRECTION ( 'NONE',  ( -1.000000000000000000, -0.0000000000000000000, 0.0000000000000000000 ) ) ;
#193 = SURFACE_STYLE_FILL_AREA ( #11 ) ;
#194 = EDGE_LOOP ( 'NONE', ( #38, #136, #25, #128 ) ) ;
#195 = CARTESIAN_POINT ( 'NONE',  ( -500.0000000000000000, -250.0000000000000000, -3.000000000000000000 ) ) ;
#196 = SURFACE_SIDE_STYLE ('',( #151 ) ) ;
#197 = CARTESIAN_POINT ( 'NONE',  ( 500.0000000000000000, -250.0000000000000000, -3.000000000000000000 ) ) ;
#198 = ORIENTED_EDGE ( 'NONE', *, *, #16, .T. ) ;
#199 = APPLICATION_PROTOCOL_DEFINITION ( 'draft international standard', 'automotive_design', 1998, #53 ) ;
#200 = ORIENTED_EDGE ( 'NONE', *, *, #155, .T. ) ;
#201 =( GEOMETRIC_REPRESENTATION_CONTEXT ( 3 ) GLOBAL_UNCERTAINTY_ASSIGNED_CONTEXT ( ( #124 ) ) GLOBAL_UNIT_ASSIGNED_CONTEXT ( ( #104, #52, #83 ) ) REPRESENTATION_CONTEXT ( 'NONE', 'WORKASPACE' ) );
#202 = VERTEX_POINT ( 'NONE', #102 ) ;
ENDSEC;
END-ISO-10303-21;
