ISO-10303-21;
HEADER;
FILE_DESCRIPTION (( 'STEP AP214' ),
    '1' );
FILE_NAME ('6520250',
    '2019-02-01T12:48:41',
    ( '' ),
    ('JUGARD+KÜNSTNER GmbH'),
    'SwSTEP 2.0',
    'SolidWorks 2017',
    '' );
FILE_SCHEMA (( 'AUTOMOTIVE_DESIGN' ));
ENDSEC;

DATA;
#1 = DIRECTION ( 'NONE',  ( 1.000000000000000000, 0.0000000000000000000, -0.0000000000000000000 ) ) ;
#2 = LINE ( 'NONE', #57, #71 ) ;
#3 = CLOSED_SHELL ( 'NONE', ( #122, #138, #183, #95, #28, #64 ) ) ;
#4 = FILL_AREA_STYLE_COLOUR ( '', #29 ) ;
#5 = DIRECTION ( 'NONE',  ( 0.0000000000000000000, -1.000000000000000000, -0.0000000000000000000 ) ) ;
#6 = COLOUR_RGB ( '',0.7529411764705882200, 0.7529411764705882200, 0.7529411764705882200 ) ;
#7 = APPLICATION_CONTEXT ( 'automotive_design' ) ;
#8 = LINE ( 'NONE', #202, #123 ) ;
#9 = APPLICATION_CONTEXT ( 'automotive_design' ) ;
#10 = ORIENTED_EDGE ( 'NONE', *, *, #90, .T. ) ;
#11 = VERTEX_POINT ( 'NONE', #13 ) ;
#12 = PRODUCT_DEFINITION_SHAPE ( 'NONE', 'NONE',  #156 ) ;
#13 = CARTESIAN_POINT ( 'NONE',  ( -500.0000000000000000, 250.0000000000000000, 0.0000000000000000000 ) ) ;
#14 = ORIENTED_EDGE ( 'NONE', *, *, #31, .T. ) ;
#15 = EDGE_CURVE ( 'NONE', #195, #106, #8, .T. ) ;
#16 = CARTESIAN_POINT ( 'NONE',  ( 500.0000000000000000, -250.0000000000000000, 0.0000000000000000000 ) ) ;
#17 = PLANE ( 'NONE',  #93 ) ;
#18 = ORIENTED_EDGE ( 'NONE', *, *, #153, .T. ) ;
#19 = CARTESIAN_POINT ( 'NONE',  ( -500.0000000000000000, -250.0000000000000000, 0.0000000000000000000 ) ) ;
#20 =( GEOMETRIC_REPRESENTATION_CONTEXT ( 3 ) GLOBAL_UNCERTAINTY_ASSIGNED_CONTEXT ( ( #191 ) ) GLOBAL_UNIT_ASSIGNED_CONTEXT ( ( #190, #178, #45 ) ) REPRESENTATION_CONTEXT ( 'NONE', 'WORKASPACE' ) );
#21 = STYLED_ITEM ( 'NONE', ( #81 ), #42 ) ;
#22 = VECTOR ( 'NONE', #147, 1000.000000000000000 ) ;
#23 = DIRECTION ( 'NONE',  ( 0.0000000000000000000, 0.0000000000000000000, -1.000000000000000000 ) ) ;
#24 = SURFACE_STYLE_FILL_AREA ( #98 ) ;
#25 = DIRECTION ( 'NONE',  ( 0.0000000000000000000, 0.0000000000000000000, 1.000000000000000000 ) ) ;
#26 = APPLICATION_PROTOCOL_DEFINITION ( 'draft international standard', 'automotive_design', 1998, #9 ) ;
#27 = EDGE_CURVE ( 'NONE', #106, #151, #101, .T. ) ;
#28 = ADVANCED_FACE ( 'NONE', ( #37 ), #188, .F. ) ;
#29 = COLOUR_RGB ( '',0.6274509803921568500, 0.8352941176470588500, 1.000000000000000000 ) ;
#30 = DIRECTION ( 'NONE',  ( 0.0000000000000000000, 1.000000000000000000, -0.0000000000000000000 ) ) ;
#31 = EDGE_CURVE ( 'NONE', #195, #139, #145, .T. ) ;
#32 = FACE_OUTER_BOUND ( 'NONE', #89, .T. ) ;
#33 = DIRECTION ( 'NONE',  ( 0.0000000000000000000, 0.0000000000000000000, 1.000000000000000000 ) ) ;
#34 = AXIS2_PLACEMENT_3D ( 'NONE', #40, #181, #23 ) ;
#35 = CARTESIAN_POINT ( 'NONE',  ( -500.0000000000000000, 250.0000000000000000, 4.000000000000000000 ) ) ;
#36 = DIRECTION ( 'NONE',  ( 0.0000000000000000000, 0.0000000000000000000, 1.000000000000000000 ) ) ;
#37 = FACE_OUTER_BOUND ( 'NONE', #79, .T. ) ;
#38 = DIRECTION ( 'NONE',  ( 0.0000000000000000000, -1.000000000000000000, -0.0000000000000000000 ) ) ;
#39 = ORIENTED_EDGE ( 'NONE', *, *, #90, .F. ) ;
#40 = CARTESIAN_POINT ( 'NONE',  ( -500.0000000000000000, 250.0000000000000000, 4.000000000000000000 ) ) ;
#41 = EDGE_LOOP ( 'NONE', ( #176, #18, #82, #114 ) ) ;
#42 = MANIFOLD_SOLID_BREP ( 'Importiert1', #3 ) ;
#43 = CARTESIAN_POINT ( 'NONE',  ( 500.0000000000000000, 250.0000000000000000, 4.000000000000000000 ) ) ;
#44 = EDGE_CURVE ( 'NONE', #133, #72, #58, .T. ) ;
#45 =( NAMED_UNIT ( * ) SI_UNIT ( $, .STERADIAN. ) SOLID_ANGLE_UNIT ( ) );
#46 = UNCERTAINTY_MEASURE_WITH_UNIT (LENGTH_MEASURE( 1.000000000000000100E-005 ), #104, 'distance_accuracy_value', 'NONE');
#47 = SHAPE_DEFINITION_REPRESENTATION ( #12, #165 ) ;
#48 = EDGE_CURVE ( 'NONE', #72, #151, #120, .T. ) ;
#49 = AXIS2_PLACEMENT_3D ( 'NONE', #119, #25, #107 ) ;
#50 = SURFACE_SIDE_STYLE ('',( #24 ) ) ;
#51 = DIRECTION ( 'NONE',  ( -0.0000000000000000000, 1.000000000000000000, 0.0000000000000000000 ) ) ;
#52 = VECTOR ( 'NONE', #99, 1000.000000000000000 ) ;
#53 = CARTESIAN_POINT ( 'NONE',  ( 500.0000000000000000, 250.0000000000000000, 0.0000000000000000000 ) ) ;
#54 = DIRECTION ( 'NONE',  ( 0.0000000000000000000, 0.0000000000000000000, 1.000000000000000000 ) ) ;
#55 = PLANE ( 'NONE',  #34 ) ;
#56 = AXIS2_PLACEMENT_3D ( 'NONE', #103, #102, #173 ) ;
#57 = CARTESIAN_POINT ( 'NONE',  ( 500.0000000000000000, 250.0000000000000000, 4.000000000000000000 ) ) ;
#58 = LINE ( 'NONE', #131, #179 ) ;
#59 = EDGE_LOOP ( 'NONE', ( #39, #110, #124, #199 ) ) ;
#60 = SURFACE_STYLE_USAGE ( .BOTH. , #77 ) ;
#61 = CARTESIAN_POINT ( 'NONE',  ( -500.0000000000000000, -250.0000000000000000, 0.0000000000000000000 ) ) ;
#62 = PRODUCT_DEFINITION_FORMATION_WITH_SPECIFIED_SOURCE ( 'ANY', '', #86, .NOT_KNOWN. ) ;
#63 = ORIENTED_EDGE ( 'NONE', *, *, #150, .F. ) ;
#64 = ADVANCED_FACE ( 'NONE', ( #117 ), #187, .T. ) ;
#65 = PRODUCT_DEFINITION_CONTEXT ( 'detailed design', #9, 'design' ) ;
#66 = ORIENTED_EDGE ( 'NONE', *, *, #88, .F. ) ;
#67 = VECTOR ( 'NONE', #30, 1000.000000000000000 ) ;
#68 = CARTESIAN_POINT ( 'NONE',  ( -500.0000000000000000, -250.0000000000000000, 4.000000000000000000 ) ) ;
#69 = EDGE_CURVE ( 'NONE', #139, #133, #136, .T. ) ;
#70 = CARTESIAN_POINT ( 'NONE',  ( -500.0000000000000000, 250.0000000000000000, 0.0000000000000000000 ) ) ;
#71 = VECTOR ( 'NONE', #73, 1000.000000000000000 ) ;
#72 = VERTEX_POINT ( 'NONE', #53 ) ;
#73 = DIRECTION ( 'NONE',  ( -1.000000000000000000, -0.0000000000000000000, -0.0000000000000000000 ) ) ;
#74 = FILL_AREA_STYLE ('',( #194 ) ) ;
#75 = AXIS2_PLACEMENT_3D ( 'NONE', #43, #105, #91 ) ;
#76 = VECTOR ( 'NONE', #148, 1000.000000000000000 ) ;
#77 = SURFACE_SIDE_STYLE ('',( #94 ) ) ;
#78 = VECTOR ( 'NONE', #160, 1000.000000000000000 ) ;
#79 = EDGE_LOOP ( 'NONE', ( #184, #185, #14, #140 ) ) ;
#80 = EDGE_CURVE ( 'NONE', #171, #195, #192, .T. ) ;
#81 = PRESENTATION_STYLE_ASSIGNMENT (( #162 ) ) ;
#82 = ORIENTED_EDGE ( 'NONE', *, *, #80, .T. ) ;
#83 = CARTESIAN_POINT ( 'NONE',  ( 500.0000000000000000, -250.0000000000000000, 4.000000000000000000 ) ) ;
#84 =( NAMED_UNIT ( * ) PLANE_ANGLE_UNIT ( ) SI_UNIT ( $, .RADIAN. ) );
#85 = LINE ( 'NONE', #196, #198 ) ;
#86 = PRODUCT ( '6520250_CNAJF00', '6520250_CNAJF00', '', ( #87 ) ) ;
#87 = PRODUCT_CONTEXT ( 'NONE', #7, 'mechanical' ) ;
#88 = EDGE_CURVE ( 'NONE', #133, #106, #193, .T. ) ;
#89 = EDGE_LOOP ( 'NONE', ( #108, #142, #66, #172 ) ) ;
#90 = EDGE_CURVE ( 'NONE', #72, #11, #96, .T. ) ;
#91 = DIRECTION ( 'NONE',  ( 0.0000000000000000000, -0.0000000000000000000, -1.000000000000000000 ) ) ;
#92 = CARTESIAN_POINT ( 'NONE',  ( -500.0000000000000000, 250.0000000000000000, 4.000000000000000000 ) ) ;
#93 = AXIS2_PLACEMENT_3D ( 'NONE', #126, #143, #158 ) ;
#94 = SURFACE_STYLE_FILL_AREA ( #74 ) ;
#95 = ADVANCED_FACE ( 'NONE', ( #32 ), #17, .F. ) ;
#96 = LINE ( 'NONE', #70, #52 ) ;
#97 = PRESENTATION_LAYER_ASSIGNMENT (  '', '', ( #21 ) ) ;
#98 = FILL_AREA_STYLE ('',( #4 ) ) ;
#99 = DIRECTION ( 'NONE',  ( -1.000000000000000000, -0.0000000000000000000, 0.0000000000000000000 ) ) ;
#100 =( LENGTH_UNIT ( ) NAMED_UNIT ( * ) SI_UNIT ( .MILLI., .METRE. ) );
#101 = LINE ( 'NONE', #157, #67 ) ;
#102 = DIRECTION ( 'NONE',  ( 0.0000000000000000000, 1.000000000000000000, 0.0000000000000000000 ) ) ;
#103 = CARTESIAN_POINT ( 'NONE',  ( -500.0000000000000000, -250.0000000000000000, 4.000000000000000000 ) ) ;
#104 =( LENGTH_UNIT ( ) NAMED_UNIT ( * ) SI_UNIT ( .MILLI., .METRE. ) );
#105 = DIRECTION ( 'NONE',  ( 0.0000000000000000000, -1.000000000000000000, 0.0000000000000000000 ) ) ;
#106 = VERTEX_POINT ( 'NONE', #83 ) ;
#107 = DIRECTION ( 'NONE',  ( 1.000000000000000000, 0.0000000000000000000, 0.0000000000000000000 ) ) ;
#108 = ORIENTED_EDGE ( 'NONE', *, *, #48, .T. ) ;
#109 = VECTOR ( 'NONE', #54, 1000.000000000000000 ) ;
#110 = ORIENTED_EDGE ( 'NONE', *, *, #44, .F. ) ;
#111 = FACE_OUTER_BOUND ( 'NONE', #59, .T. ) ;
#112 = DIRECTION ( 'NONE',  ( -0.0000000000000000000, 0.0000000000000000000, 1.000000000000000000 ) ) ;
#113 = EDGE_LOOP ( 'NONE', ( #169, #166, #63, #121 ) ) ;
#114 = ORIENTED_EDGE ( 'NONE', *, *, #15, .T. ) ;
#115 =( NAMED_UNIT ( * ) PLANE_ANGLE_UNIT ( ) SI_UNIT ( $, .RADIAN. ) );
#116 = MECHANICAL_DESIGN_GEOMETRIC_PRESENTATION_REPRESENTATION (  '', ( #21 ), #125 ) ;
#117 = FACE_OUTER_BOUND ( 'NONE', #41, .T. ) ;
#118 =( GEOMETRIC_REPRESENTATION_CONTEXT ( 3 ) GLOBAL_UNCERTAINTY_ASSIGNED_CONTEXT ( ( #46 ) ) GLOBAL_UNIT_ASSIGNED_CONTEXT ( ( #104, #115, #149 ) ) REPRESENTATION_CONTEXT ( 'NONE', 'WORKASPACE' ) );
#119 = CARTESIAN_POINT ( 'NONE',  ( 0.0000000000000000000, 0.0000000000000000000, 0.0000000000000000000 ) ) ;
#120 = LINE ( 'NONE', #175, #186 ) ;
#121 = ORIENTED_EDGE ( 'NONE', *, *, #189, .T. ) ;
#122 = ADVANCED_FACE ( 'NONE', ( #111 ), #200, .F. ) ;
#123 = VECTOR ( 'NONE', #161, 1000.000000000000000 ) ;
#124 = ORIENTED_EDGE ( 'NONE', *, *, #69, .F. ) ;
#125 =( GEOMETRIC_REPRESENTATION_CONTEXT ( 3 ) GLOBAL_UNCERTAINTY_ASSIGNED_CONTEXT ( ( #135 ) ) GLOBAL_UNIT_ASSIGNED_CONTEXT ( ( #100, #84, #144 ) ) REPRESENTATION_CONTEXT ( 'NONE', 'WORKASPACE' ) );
#126 = CARTESIAN_POINT ( 'NONE',  ( 500.0000000000000000, -250.0000000000000000, 4.000000000000000000 ) ) ;
#127 = CARTESIAN_POINT ( 'NONE',  ( -500.0000000000000000, -250.0000000000000000, 0.0000000000000000000 ) ) ;
#128 = CARTESIAN_POINT ( 'NONE',  ( -500.0000000000000000, -250.0000000000000000, 4.000000000000000000 ) ) ;
#129 = PRESENTATION_LAYER_ASSIGNMENT (  '', '', ( #201 ) ) ;
#130 = PRESENTATION_STYLE_ASSIGNMENT (( #60 ) ) ;
#131 = CARTESIAN_POINT ( 'NONE',  ( 500.0000000000000000, -250.0000000000000000, 0.0000000000000000000 ) ) ;
#132 = DIRECTION ( 'NONE',  ( 1.000000000000000000, 0.0000000000000000000, -0.0000000000000000000 ) ) ;
#133 = VERTEX_POINT ( 'NONE', #16 ) ;
#134 = AXIS2_PLACEMENT_3D ( 'NONE', #128, #36, #1 ) ;
#135 = UNCERTAINTY_MEASURE_WITH_UNIT (LENGTH_MEASURE( 1.000000000000000100E-005 ), #100, 'distance_accuracy_value', 'NONE');
#136 = LINE ( 'NONE', #19, #22 ) ;
#137 = ORIENTED_EDGE ( 'NONE', *, *, #150, .T. ) ;
#138 = ADVANCED_FACE ( 'NONE', ( #155 ), #55, .F. ) ;
#139 = VERTEX_POINT ( 'NONE', #61 ) ;
#140 = ORIENTED_EDGE ( 'NONE', *, *, #69, .T. ) ;
#141 = MECHANICAL_DESIGN_GEOMETRIC_PRESENTATION_REPRESENTATION (  '', ( #201 ), #20 ) ;
#142 = ORIENTED_EDGE ( 'NONE', *, *, #27, .F. ) ;
#143 = DIRECTION ( 'NONE',  ( -1.000000000000000000, 0.0000000000000000000, 0.0000000000000000000 ) ) ;
#144 =( NAMED_UNIT ( * ) SI_UNIT ( $, .STERADIAN. ) SOLID_ANGLE_UNIT ( ) );
#145 = LINE ( 'NONE', #68, #78 ) ;
#146 = ORIENTED_EDGE ( 'NONE', *, *, #153, .F. ) ;
#147 = DIRECTION ( 'NONE',  ( 1.000000000000000000, 0.0000000000000000000, -0.0000000000000000000 ) ) ;
#148 = DIRECTION ( 'NONE',  ( -0.0000000000000000000, -0.0000000000000000000, 1.000000000000000000 ) ) ;
#149 =( NAMED_UNIT ( * ) SI_UNIT ( $, .STERADIAN. ) SOLID_ANGLE_UNIT ( ) );
#150 = EDGE_CURVE ( 'NONE', #11, #171, #154, .T. ) ;
#151 = VERTEX_POINT ( 'NONE', #168 ) ;
#152 = APPLICATION_PROTOCOL_DEFINITION ( 'draft international standard', 'automotive_design', 1998, #7 ) ;
#153 = EDGE_CURVE ( 'NONE', #151, #171, #2, .T. ) ;
#154 = LINE ( 'NONE', #163, #76 ) ;
#155 = FACE_OUTER_BOUND ( 'NONE', #113, .T. ) ;
#156 = PRODUCT_DEFINITION ( 'UNKNOWN', '', #62, #65 ) ;
#157 = CARTESIAN_POINT ( 'NONE',  ( 500.0000000000000000, -250.0000000000000000, 4.000000000000000000 ) ) ;
#158 = DIRECTION ( 'NONE',  ( 0.0000000000000000000, 0.0000000000000000000, 1.000000000000000000 ) ) ;
#159 = CARTESIAN_POINT ( 'NONE',  ( 500.0000000000000000, -250.0000000000000000, 4.000000000000000000 ) ) ;
#160 = DIRECTION ( 'NONE',  ( 0.0000000000000000000, 0.0000000000000000000, -1.000000000000000000 ) ) ;
#161 = DIRECTION ( 'NONE',  ( 1.000000000000000000, 0.0000000000000000000, -0.0000000000000000000 ) ) ;
#162 = SURFACE_STYLE_USAGE ( .BOTH. , #50 ) ;
#163 = CARTESIAN_POINT ( 'NONE',  ( -500.0000000000000000, 250.0000000000000000, 4.000000000000000000 ) ) ;
#164 = CARTESIAN_POINT ( 'NONE',  ( -500.0000000000000000, -250.0000000000000000, 4.000000000000000000 ) ) ;
#165 = ADVANCED_BREP_SHAPE_REPRESENTATION ( '6520250_CNAJF00', ( #42, #49 ), #118 ) ;
#166 = ORIENTED_EDGE ( 'NONE', *, *, #80, .F. ) ;
#167 = PRODUCT_RELATED_PRODUCT_CATEGORY ( 'part', '', ( #86 ) ) ;
#168 = CARTESIAN_POINT ( 'NONE',  ( 500.0000000000000000, 250.0000000000000000, 4.000000000000000000 ) ) ;
#169 = ORIENTED_EDGE ( 'NONE', *, *, #31, .F. ) ;
#170 = FACE_OUTER_BOUND ( 'NONE', #180, .T. ) ;
#171 = VERTEX_POINT ( 'NONE', #92 ) ;
#172 = ORIENTED_EDGE ( 'NONE', *, *, #44, .T. ) ;
#173 = DIRECTION ( 'NONE',  ( 0.0000000000000000000, -0.0000000000000000000, 1.000000000000000000 ) ) ;
#174 = VECTOR ( 'NONE', #38, 1000.000000000000000 ) ;
#175 = CARTESIAN_POINT ( 'NONE',  ( 500.0000000000000000, 250.0000000000000000, 4.000000000000000000 ) ) ;
#176 = ORIENTED_EDGE ( 'NONE', *, *, #27, .T. ) ;
#177 = PLANE ( 'NONE',  #75 ) ;
#178 =( NAMED_UNIT ( * ) PLANE_ANGLE_UNIT ( ) SI_UNIT ( $, .RADIAN. ) );
#179 = VECTOR ( 'NONE', #51, 1000.000000000000000 ) ;
#180 = EDGE_LOOP ( 'NONE', ( #137, #146, #182, #10 ) ) ;
#181 = DIRECTION ( 'NONE',  ( 1.000000000000000000, 0.0000000000000000000, 0.0000000000000000000 ) ) ;
#182 = ORIENTED_EDGE ( 'NONE', *, *, #48, .F. ) ;
#183 = ADVANCED_FACE ( 'NONE', ( #170 ), #177, .F. ) ;
#184 = ORIENTED_EDGE ( 'NONE', *, *, #88, .T. ) ;
#185 = ORIENTED_EDGE ( 'NONE', *, *, #15, .F. ) ;
#186 = VECTOR ( 'NONE', #112, 1000.000000000000000 ) ;
#187 = PLANE ( 'NONE',  #134 ) ;
#188 = PLANE ( 'NONE',  #56 ) ;
#189 = EDGE_CURVE ( 'NONE', #11, #139, #85, .T. ) ;
#190 =( LENGTH_UNIT ( ) NAMED_UNIT ( * ) SI_UNIT ( .MILLI., .METRE. ) );
#191 = UNCERTAINTY_MEASURE_WITH_UNIT (LENGTH_MEASURE( 1.000000000000000100E-005 ), #190, 'distance_accuracy_value', 'NONE');
#192 = LINE ( 'NONE', #35, #174 ) ;
#193 = LINE ( 'NONE', #159, #109 ) ;
#194 = FILL_AREA_STYLE_COLOUR ( '', #6 ) ;
#195 = VERTEX_POINT ( 'NONE', #164 ) ;
#196 = CARTESIAN_POINT ( 'NONE',  ( -500.0000000000000000, -250.0000000000000000, 0.0000000000000000000 ) ) ;
#197 = AXIS2_PLACEMENT_3D ( 'NONE', #127, #33, #132 ) ;
#198 = VECTOR ( 'NONE', #5, 1000.000000000000000 ) ;
#199 = ORIENTED_EDGE ( 'NONE', *, *, #189, .F. ) ;
#200 = PLANE ( 'NONE',  #197 ) ;
#201 = STYLED_ITEM ( 'NONE', ( #130 ), #165 ) ;
#202 = CARTESIAN_POINT ( 'NONE',  ( -500.0000000000000000, -250.0000000000000000, 4.000000000000000000 ) ) ;
ENDSEC;
END-ISO-10303-21;
