ISO-10303-21;
HEADER;
FILE_DESCRIPTION (( 'STEP AP214' ),
    '1' );
FILE_NAME ('6530015',
    '2019-01-31T12:11:25',
    ( '' ),
    ('JUGARD+KÜNSTNER GmbH'),
    'SwSTEP 2.0',
    'SolidWorks 2017',
    '' );
FILE_SCHEMA (( 'AUTOMOTIVE_DESIGN' ));
ENDSEC;

DATA;
#1 = COLOUR_RGB ( '',0.7529411764705882200, 0.7529411764705882200, 0.7529411764705882200 ) ;
#2 = ORIENTED_EDGE ( 'NONE', *, *, #143, .F. ) ;
#3 = PLANE ( 'NONE',  #118 ) ;
#4 = DIRECTION ( 'NONE',  ( 1.000000000000000000, 0.0000000000000000000, 0.0000000000000000000 ) ) ;
#5 = FACE_OUTER_BOUND ( 'NONE', #102, .T. ) ;
#6 = EDGE_CURVE ( 'NONE', #236, #182, #38, .T. ) ;
#7 = ORIENTED_EDGE ( 'NONE', *, *, #100, .F. ) ;
#8 = ORIENTED_EDGE ( 'NONE', *, *, #104, .F. ) ;
#9 = ORIENTED_EDGE ( 'NONE', *, *, #101, .T. ) ;
#10 = CARTESIAN_POINT ( 'NONE',  ( -36.70000000000000300, -60.00000000000000000, 0.0000000000000000000 ) ) ;
#11 = PRODUCT_DEFINITION ( 'UNKNOWN', '', #248, #69 ) ;
#12 = CARTESIAN_POINT ( 'NONE',  ( 825.0000000000001100, -55.03000000000000100, -59.00000000000000700 ) ) ;
#13 = CARTESIAN_POINT ( 'NONE',  ( -36.70000000000000300, 60.00000000000000000, -60.00000000000000000 ) ) ;
#14 = COLOUR_RGB ( '',0.8000000000000000400, 0.8000000000000000400, 0.8000000000000000400 ) ;
#15 =( NAMED_UNIT ( * ) PLANE_ANGLE_UNIT ( ) SI_UNIT ( $, .RADIAN. ) );
#16 = CARTESIAN_POINT ( 'NONE',  ( 825.0000000000001100, -55.03000000000000100, -48.00000000000000000 ) ) ;
#17 = DIRECTION ( 'NONE',  ( -0.0000000000000000000, -0.0000000000000000000, 1.000000000000000000 ) ) ;
#18 = VECTOR ( 'NONE', #232, 1000.000000000000000 ) ;
#19 = APPLICATION_PROTOCOL_DEFINITION ( 'draft international standard', 'automotive_design', 1998, #299 ) ;
#20 = EDGE_LOOP ( 'NONE', ( #282, #227, #250, #331 ) ) ;
#21 = DIRECTION ( 'NONE',  ( 1.000000000000000000, 0.0000000000000000000, 0.0000000000000000000 ) ) ;
#22 = ADVANCED_FACE ( 'NONE', ( #356 ), #255, .T. ) ;
#23 = AXIS2_PLACEMENT_3D ( 'NONE', #149, #324, #348 ) ;
#24 = VECTOR ( 'NONE', #141, 1000.000000000000000 ) ;
#25 = LINE ( 'NONE', #16, #312 ) ;
#26 = ORIENTED_EDGE ( 'NONE', *, *, #129, .F. ) ;
#27 = AXIS2_PLACEMENT_3D ( 'NONE', #147, #244, #59 ) ;
#28 = VECTOR ( 'NONE', #154, 1000.000000000000000 ) ;
#29 = ORIENTED_EDGE ( 'NONE', *, *, #198, .F. ) ;
#30 = LINE ( 'NONE', #134, #70 ) ;
#31 = AXIS2_PLACEMENT_3D ( 'NONE', #186, #40, #190 ) ;
#32 = DIRECTION ( 'NONE',  ( -0.0000000000000000000, -0.0000000000000000000, 1.000000000000000000 ) ) ;
#33 =( GEOMETRIC_REPRESENTATION_CONTEXT ( 3 ) GLOBAL_UNCERTAINTY_ASSIGNED_CONTEXT ( ( #219 ) ) GLOBAL_UNIT_ASSIGNED_CONTEXT ( ( #325, #330, #153 ) ) REPRESENTATION_CONTEXT ( 'NONE', 'WORKASPACE' ) );
#34 = EDGE_LOOP ( 'NONE', ( #204, #259, #215, #290 ) ) ;
#35 = VERTEX_POINT ( 'NONE', #310 ) ;
#36 = CARTESIAN_POINT ( 'NONE',  ( 861.7000000000000500, 60.00000000000000000, 3.816391647148975600E-014 ) ) ;
#37 = DIRECTION ( 'NONE',  ( 1.000000000000000000, 0.0000000000000000000, -0.0000000000000000000 ) ) ;
#38 = LINE ( 'NONE', #224, #252 ) ;
#39 = CARTESIAN_POINT ( 'NONE',  ( -36.70000000000000300, -60.00000000000000000, 0.0000000000000000000 ) ) ;
#40 = DIRECTION ( 'NONE',  ( 0.0000000000000000000, 0.0000000000000000000, 1.000000000000000000 ) ) ;
#41 = VECTOR ( 'NONE', #145, 1000.000000000000000 ) ;
#42 = ORIENTED_EDGE ( 'NONE', *, *, #104, .T. ) ;
#43 = VERTEX_POINT ( 'NONE', #237 ) ;
#44 = CARTESIAN_POINT ( 'NONE',  ( -36.70000000000000300, -60.00000000000000000, -60.00000000000000000 ) ) ;
#45 = LINE ( 'NONE', #165, #308 ) ;
#46 = DIRECTION ( 'NONE',  ( -0.0000000000000000000, -1.000000000000000000, -0.0000000000000000000 ) ) ;
#47 = ORIENTED_EDGE ( 'NONE', *, *, #167, .F. ) ;
#48 = EDGE_LOOP ( 'NONE', ( #47, #235, #65, #151 ) ) ;
#49 =( GEOMETRIC_REPRESENTATION_CONTEXT ( 3 ) GLOBAL_UNCERTAINTY_ASSIGNED_CONTEXT ( ( #136 ) ) GLOBAL_UNIT_ASSIGNED_CONTEXT ( ( #142, #176, #113 ) ) REPRESENTATION_CONTEXT ( 'NONE', 'WORKASPACE' ) );
#50 = ORIENTED_EDGE ( 'NONE', *, *, #193, .F. ) ;
#51 = LINE ( 'NONE', #231, #199 ) ;
#52 = CARTESIAN_POINT ( 'NONE',  ( -4.440892098500619900E-015, -55.03000000000000100, -59.00000000000000700 ) ) ;
#53 = STYLED_ITEM ( 'NONE', ( #85 ), #161 ) ;
#54 = CARTESIAN_POINT ( 'NONE',  ( 861.7000000000000500, -60.00000000000000000, -60.00000000000000000 ) ) ;
#55 = CLOSED_SHELL ( 'NONE', ( #273, #22, #322, #354, #243, #60, #208, #67, #349, #79, #202 ) ) ;
#56 = EDGE_LOOP ( 'NONE', ( #42, #283, #130, #272 ) ) ;
#57 = SURFACE_STYLE_USAGE ( .BOTH. , #321 ) ;
#58 = PLANE ( 'NONE',  #332 ) ;
#59 = DIRECTION ( 'NONE',  ( 0.0000000000000000000, -0.0000000000000000000, 1.000000000000000000 ) ) ;
#60 = ADVANCED_FACE ( 'NONE', ( #139, #242 ), #3, .T. ) ;
#61 = ORIENTED_EDGE ( 'NONE', *, *, #247, .F. ) ;
#62 = EDGE_CURVE ( 'NONE', #97, #177, #30, .T. ) ;
#63 = DIRECTION ( 'NONE',  ( 0.0000000000000000000, -0.0000000000000000000, -1.000000000000000000 ) ) ;
#64 = LINE ( 'NONE', #52, #18 ) ;
#65 = ORIENTED_EDGE ( 'NONE', *, *, #125, .F. ) ;
#66 = CARTESIAN_POINT ( 'NONE',  ( -36.70000000000000300, 0.0000000000000000000, -30.00000000000000000 ) ) ;
#67 = ADVANCED_FACE ( 'NONE', ( #284 ), #82, .T. ) ;
#68 = DIRECTION ( 'NONE',  ( 0.0000000000000000000, -1.000000000000000000, 0.0000000000000000000 ) ) ;
#69 = PRODUCT_DEFINITION_CONTEXT ( 'detailed design', #299, 'design' ) ;
#70 = VECTOR ( 'NONE', #32, 1000.000000000000000 ) ;
#71 = VECTOR ( 'NONE', #270, 1000.000000000000000 ) ;
#72 = ORIENTED_EDGE ( 'NONE', *, *, #220, .T. ) ;
#73 = ORIENTED_EDGE ( 'NONE', *, *, #100, .T. ) ;
#74 = AXIS2_PLACEMENT_3D ( 'NONE', #302, #68, #278 ) ;
#75 = VERTEX_POINT ( 'NONE', #54 ) ;
#76 = DIRECTION ( 'NONE',  ( 1.000000000000000000, 0.0000000000000000000, 0.0000000000000000000 ) ) ;
#77 = VECTOR ( 'NONE', #17, 1000.000000000000000 ) ;
#78 = DIRECTION ( 'NONE',  ( 0.0000000000000000000, 0.0000000000000000000, -1.000000000000000000 ) ) ;
#79 = ADVANCED_FACE ( 'NONE', ( #164 ), #337, .F. ) ;
#80 = LINE ( 'NONE', #293, #98 ) ;
#81 = ORIENTED_EDGE ( 'NONE', *, *, #193, .T. ) ;
#82 = PLANE ( 'NONE',  #262 ) ;
#83 = DIRECTION ( 'NONE',  ( 1.000000000000000000, -0.0000000000000000000, 0.0000000000000000000 ) ) ;
#84 = EDGE_CURVE ( 'NONE', #328, #75, #210, .T. ) ;
#85 = PRESENTATION_STYLE_ASSIGNMENT (( #213 ) ) ;
#86 = DIRECTION ( 'NONE',  ( 0.0000000000000000000, 0.0000000000000000000, -1.000000000000000000 ) ) ;
#87 = EDGE_LOOP ( 'NONE', ( #188, #197, #315, #265 ) ) ;
#88 = VECTOR ( 'NONE', #137, 1000.000000000000000 ) ;
#89 = PLANE ( 'NONE',  #27 ) ;
#90 = PLANE ( 'NONE',  #23 ) ;
#91 = EDGE_CURVE ( 'NONE', #152, #301, #45, .T. ) ;
#92 = DIRECTION ( 'NONE',  ( 0.0000000000000000000, 0.0000000000000000000, 1.000000000000000000 ) ) ;
#93 = VECTOR ( 'NONE', #173, 1000.000000000000000 ) ;
#94 = DIRECTION ( 'NONE',  ( 0.0000000000000000000, 0.0000000000000000000, 1.000000000000000000 ) ) ;
#95 =( NAMED_UNIT ( * ) SI_UNIT ( $, .STERADIAN. ) SOLID_ANGLE_UNIT ( ) );
#96 =( NAMED_UNIT ( * ) PLANE_ANGLE_UNIT ( ) SI_UNIT ( $, .RADIAN. ) );
#97 = VERTEX_POINT ( 'NONE', #317 ) ;
#98 = VECTOR ( 'NONE', #292, 1000.000000000000000 ) ;
#99 = PLANE ( 'NONE',  #258 ) ;
#100 = EDGE_CURVE ( 'NONE', #301, #182, #64, .T. ) ;
#101 = EDGE_CURVE ( 'NONE', #131, #301, #51, .T. ) ;
#102 = EDGE_LOOP ( 'NONE', ( #296, #50, #112, #254 ) ) ;
#103 = VERTEX_POINT ( 'NONE', #309 ) ;
#104 = EDGE_CURVE ( 'NONE', #261, #152, #303, .T. ) ;
#105 = CARTESIAN_POINT ( 'NONE',  ( -4.440892098500619900E-015, 53.00000000000000000, -59.00000000000000700 ) ) ;
#106 = ORIENTED_EDGE ( 'NONE', *, *, #247, .T. ) ;
#107 = DIRECTION ( 'NONE',  ( 1.000000000000000000, 0.0000000000000000000, 0.0000000000000000000 ) ) ;
#108 = CARTESIAN_POINT ( 'NONE',  ( -36.70000000000000300, 60.00000000000000000, 0.0000000000000000000 ) ) ;
#109 = CARTESIAN_POINT ( 'NONE',  ( -36.70000000000000300, -60.00000000000000000, -60.00000000000000000 ) ) ;
#110 = ORIENTED_EDGE ( 'NONE', *, *, #120, .T. ) ;
#111 = LINE ( 'NONE', #207, #335 ) ;
#112 = ORIENTED_EDGE ( 'NONE', *, *, #194, .F. ) ;
#113 =( NAMED_UNIT ( * ) SI_UNIT ( $, .STERADIAN. ) SOLID_ANGLE_UNIT ( ) );
#114 = CARTESIAN_POINT ( 'NONE',  ( -36.70000000000000300, -60.00000000000000000, 0.0000000000000000000 ) ) ;
#115 = SURFACE_STYLE_FILL_AREA ( #267 ) ;
#116 = LINE ( 'NONE', #10, #256 ) ;
#117 = CARTESIAN_POINT ( 'NONE',  ( -36.70000000000000300, 53.00000000000000000, -60.00000000000000000 ) ) ;
#118 = AXIS2_PLACEMENT_3D ( 'NONE', #334, #78, #313 ) ;
#119 = PLANE ( 'NONE',  #271 ) ;
#120 = EDGE_CURVE ( 'NONE', #75, #97, #346, .T. ) ;
#121 = PLANE ( 'NONE',  #74 ) ;
#122 = EDGE_LOOP ( 'NONE', ( #159, #160, #72, #133 ) ) ;
#123 = EDGE_CURVE ( 'NONE', #177, #353, #357, .T. ) ;
#124 = CARTESIAN_POINT ( 'NONE',  ( -36.70000000000000300, -60.00000000000000000, -60.00000000000000000 ) ) ;
#125 = EDGE_CURVE ( 'NONE', #353, #103, #116, .T. ) ;
#126 = VECTOR ( 'NONE', #257, 1000.000000000000000 ) ;
#127 = UNCERTAINTY_MEASURE_WITH_UNIT (LENGTH_MEASURE( 1.000000000000000100E-005 ), #264, 'distance_accuracy_value', 'NONE');
#128 = CARTESIAN_POINT ( 'NONE',  ( 861.7000000000000500, -2.309263891220330100E-013, -30.00000000000000000 ) ) ;
#129 = EDGE_CURVE ( 'NONE', #236, #131, #216, .T. ) ;
#130 = ORIENTED_EDGE ( 'NONE', *, *, #359, .T. ) ;
#131 = VERTEX_POINT ( 'NONE', #287 ) ;
#132 = PRESENTATION_STYLE_ASSIGNMENT (( #57 ) ) ;
#133 = ORIENTED_EDGE ( 'NONE', *, *, #240, .T. ) ;
#134 = CARTESIAN_POINT ( 'NONE',  ( 861.7000000000000500, 60.00000000000000000, -30.00000000000000000 ) ) ;
#135 = CARTESIAN_POINT ( 'NONE',  ( -4.440892098500619900E-015, 0.0000000000000000000, -30.00000000000000000 ) ) ;
#136 = UNCERTAINTY_MEASURE_WITH_UNIT (LENGTH_MEASURE( 1.000000000000000100E-005 ), #142, 'distance_accuracy_value', 'NONE');
#137 = DIRECTION ( 'NONE',  ( -0.0000000000000000000, 1.000000000000000000, 0.0000000000000000000 ) ) ;
#138 = CARTESIAN_POINT ( 'NONE',  ( -36.70000000000000300, -60.00000000000000000, -60.00000000000000000 ) ) ;
#139 = FACE_BOUND ( 'NONE', #56, .T. ) ;
#140 = ORIENTED_EDGE ( 'NONE', *, *, #91, .F. ) ;
#141 = DIRECTION ( 'NONE',  ( -1.000000000000000000, -0.0000000000000000000, -0.0000000000000000000 ) ) ;
#142 =( LENGTH_UNIT ( ) NAMED_UNIT ( * ) SI_UNIT ( .MILLI., .METRE. ) );
#143 = EDGE_CURVE ( 'NONE', #189, #177, #169, .T. ) ;
#144 =( NAMED_UNIT ( * ) SI_UNIT ( $, .STERADIAN. ) SOLID_ANGLE_UNIT ( ) );
#145 = DIRECTION ( 'NONE',  ( -1.000000000000000000, 0.0000000000000000000, -0.0000000000000000000 ) ) ;
#146 = EDGE_CURVE ( 'NONE', #103, #328, #178, .T. ) ;
#147 = CARTESIAN_POINT ( 'NONE',  ( -4.440892098500619900E-015, -55.03000000000000100, -48.00000000000000000 ) ) ;
#148 = EDGE_CURVE ( 'NONE', #261, #131, #183, .T. ) ;
#149 = CARTESIAN_POINT ( 'NONE',  ( -36.70000000000000300, 60.00000000000000000, 0.0000000000000000000 ) ) ;
#150 = DIRECTION ( 'NONE',  ( 0.0000000000000000000, -1.000000000000000000, 0.0000000000000000000 ) ) ;
#151 = ORIENTED_EDGE ( 'NONE', *, *, #240, .F. ) ;
#152 = VERTEX_POINT ( 'NONE', #263 ) ;
#153 =( NAMED_UNIT ( * ) SI_UNIT ( $, .STERADIAN. ) SOLID_ANGLE_UNIT ( ) );
#154 = DIRECTION ( 'NONE',  ( 0.0000000000000000000, 1.000000000000000000, 0.0000000000000000000 ) ) ;
#155 = APPLICATION_CONTEXT ( 'automotive_design' ) ;
#156 = VECTOR ( 'NONE', #76, 1000.000000000000000 ) ;
#157 = DIRECTION ( 'NONE',  ( 0.0000000000000000000, -1.000000000000000000, -0.0000000000000000000 ) ) ;
#158 = LINE ( 'NONE', #117, #41 ) ;
#159 = ORIENTED_EDGE ( 'NONE', *, *, #123, .F. ) ;
#160 = ORIENTED_EDGE ( 'NONE', *, *, #62, .F. ) ;
#161 = ADVANCED_BREP_SHAPE_REPRESENTATION ( '6530015_CNAJF00', ( #174, #31 ), #285 ) ;
#162 = ORIENTED_EDGE ( 'NONE', *, *, #148, .T. ) ;
#163 = LINE ( 'NONE', #114, #253 ) ;
#164 = FACE_OUTER_BOUND ( 'NONE', #266, .T. ) ;
#165 = CARTESIAN_POINT ( 'NONE',  ( -4.440892098500619900E-015, -55.03000000000000100, -48.00000000000000000 ) ) ;
#166 = DIRECTION ( 'NONE',  ( 1.000000000000000000, 0.0000000000000000000, 0.0000000000000000000 ) ) ;
#167 = EDGE_CURVE ( 'NONE', #328, #300, #80, .T. ) ;
#168 = LINE ( 'NONE', #245, #223 ) ;
#169 = LINE ( 'NONE', #286, #320 ) ;
#170 = DIRECTION ( 'NONE',  ( 0.0000000000000000000, -1.000000000000000000, -0.0000000000000000000 ) ) ;
#171 = DIRECTION ( 'NONE',  ( 0.0000000000000000000, 0.0000000000000000000, -1.000000000000000000 ) ) ;
#172 = AXIS2_PLACEMENT_3D ( 'NONE', #128, #107, #171 ) ;
#173 = DIRECTION ( 'NONE',  ( 0.0000000000000000000, -0.0000000000000000000, -1.000000000000000000 ) ) ;
#174 = MANIFOLD_SOLID_BREP ( 'Importiert1', #55 ) ;
#175 = LINE ( 'NONE', #347, #196 ) ;
#176 =( NAMED_UNIT ( * ) PLANE_ANGLE_UNIT ( ) SI_UNIT ( $, .RADIAN. ) );
#177 = VERTEX_POINT ( 'NONE', #36 ) ;
#178 = LINE ( 'NONE', #138, #93 ) ;
#179 = CARTESIAN_POINT ( 'NONE',  ( 412.5000000000000600, -1.015000000000270100, -59.00000000000000700 ) ) ;
#180 = CARTESIAN_POINT ( 'NONE',  ( 861.7000000000000500, -60.00000000000000000, -30.00000000000000000 ) ) ;
#181 = PRODUCT_RELATED_PRODUCT_CATEGORY ( 'part', '', ( #311 ) ) ;
#182 = VERTEX_POINT ( 'NONE', #12 ) ;
#183 = LINE ( 'NONE', #338, #77 ) ;
#184 = CARTESIAN_POINT ( 'NONE',  ( -2.220446049250309900E-015, -55.03000000000000100, -59.00000000000000700 ) ) ;
#185 = PRESENTATION_LAYER_ASSIGNMENT (  '', '', ( #195 ) ) ;
#186 = CARTESIAN_POINT ( 'NONE',  ( 0.0000000000000000000, 0.0000000000000000000, 0.0000000000000000000 ) ) ;
#187 = PLANE ( 'NONE',  #238 ) ;
#188 = ORIENTED_EDGE ( 'NONE', *, *, #230, .F. ) ;
#189 = VERTEX_POINT ( 'NONE', #203 ) ;
#190 = DIRECTION ( 'NONE',  ( 1.000000000000000000, 0.0000000000000000000, 0.0000000000000000000 ) ) ;
#191 =( GEOMETRIC_REPRESENTATION_CONTEXT ( 3 ) GLOBAL_UNCERTAINTY_ASSIGNED_CONTEXT ( ( #127 ) ) GLOBAL_UNIT_ASSIGNED_CONTEXT ( ( #264, #15, #144 ) ) REPRESENTATION_CONTEXT ( 'NONE', 'WORKASPACE' ) );
#192 = CARTESIAN_POINT ( 'NONE',  ( -36.70000000000000300, 60.00000000000000000, 0.0000000000000000000 ) ) ;
#193 = EDGE_CURVE ( 'NONE', #189, #75, #279, .T. ) ;
#194 = EDGE_CURVE ( 'NONE', #103, #189, #163, .T. ) ;
#195 = STYLED_ITEM ( 'NONE', ( #336 ), #174 ) ;
#196 = VECTOR ( 'NONE', #344, 1000.000000000000000 ) ;
#197 = ORIENTED_EDGE ( 'NONE', *, *, #209, .T. ) ;
#198 = EDGE_CURVE ( 'NONE', #152, #43, #168, .T. ) ;
#199 = VECTOR ( 'NONE', #316, 1000.000000000000000 ) ;
#200 = DIRECTION ( 'NONE',  ( 0.0000000000000000000, 0.0000000000000000000, -1.000000000000000000 ) ) ;
#201 = MECHANICAL_DESIGN_GEOMETRIC_PRESENTATION_REPRESENTATION (  '', ( #280 ), #191 ) ;
#202 = ADVANCED_FACE ( 'NONE', ( #241 ), #58, .F. ) ;
#203 = CARTESIAN_POINT ( 'NONE',  ( 861.7000000000000500, -60.00000000000000000, 1.144917494144692700E-013 ) ) ;
#204 = ORIENTED_EDGE ( 'NONE', *, *, #220, .F. ) ;
#205 = EDGE_LOOP ( 'NONE', ( #2, #81, #110, #314 ) ) ;
#206 = DIRECTION ( 'NONE',  ( 0.0000000000000000000, 0.0000000000000000000, -1.000000000000000000 ) ) ;
#207 = CARTESIAN_POINT ( 'NONE',  ( 825.0000000000001100, 53.00000000000000000, -60.00000000000000000 ) ) ;
#208 = ADVANCED_FACE ( 'NONE', ( #352 ), #89, .T. ) ;
#209 = EDGE_CURVE ( 'NONE', #35, #236, #111, .T. ) ;
#210 = LINE ( 'NONE', #109, #156 ) ;
#211 = FILL_AREA_STYLE_COLOUR ( '', #14 ) ;
#212 = SURFACE_SIDE_STYLE ('',( #222 ) ) ;
#213 = SURFACE_STYLE_USAGE ( .BOTH. , #212 ) ;
#214 = FACE_OUTER_BOUND ( 'NONE', #87, .T. ) ;
#215 = ORIENTED_EDGE ( 'NONE', *, *, #84, .F. ) ;
#216 = LINE ( 'NONE', #105, #24 ) ;
#217 = FILL_AREA_STYLE_COLOUR ( '', #1 ) ;
#218 =( LENGTH_UNIT ( ) NAMED_UNIT ( * ) SI_UNIT ( .MILLI., .METRE. ) );
#219 = UNCERTAINTY_MEASURE_WITH_UNIT (LENGTH_MEASURE( 1.000000000000000100E-005 ), #325, 'distance_accuracy_value', 'NONE');
#220 = EDGE_CURVE ( 'NONE', #97, #300, #260, .T. ) ;
#221 = DIRECTION ( 'NONE',  ( 1.000000000000000000, 0.0000000000000000000, -0.0000000000000000000 ) ) ;
#222 = SURFACE_STYLE_FILL_AREA ( #249 ) ;
#223 = VECTOR ( 'NONE', #83, 1000.000000000000000 ) ;
#224 = CARTESIAN_POINT ( 'NONE',  ( 825.0000000000001100, -2.309263891220330100E-013, -59.00000000000000700 ) ) ;
#225 = FACE_OUTER_BOUND ( 'NONE', #48, .T. ) ;
#226 = EDGE_LOOP ( 'NONE', ( #29, #333, #73, #106 ) ) ;
#227 = ORIENTED_EDGE ( 'NONE', *, *, #143, .T. ) ;
#228 = PRODUCT_DEFINITION_SHAPE ( 'NONE', 'NONE',  #11 ) ;
#229 = SURFACE_STYLE_FILL_AREA ( #239 ) ;
#230 = EDGE_CURVE ( 'NONE', #35, #261, #158, .T. ) ;
#231 = CARTESIAN_POINT ( 'NONE',  ( -4.440892098500619900E-015, 0.0000000000000000000, -59.00000000000000700 ) ) ;
#232 = DIRECTION ( 'NONE',  ( 1.000000000000000000, 0.0000000000000000000, 0.0000000000000000000 ) ) ;
#233 = FACE_OUTER_BOUND ( 'NONE', #20, .T. ) ;
#234 = CARTESIAN_POINT ( 'NONE',  ( 825.0000000000001100, -2.309263891220330100E-013, -30.00000000000000000 ) ) ;
#235 = ORIENTED_EDGE ( 'NONE', *, *, #146, .F. ) ;
#236 = VERTEX_POINT ( 'NONE', #297 ) ;
#237 = CARTESIAN_POINT ( 'NONE',  ( 825.0000000000001100, -55.02999999999999400, -60.00000000000000000 ) ) ;
#238 = AXIS2_PLACEMENT_3D ( 'NONE', #44, #150, #63 ) ;
#239 = FILL_AREA_STYLE ('',( #211 ) ) ;
#240 = EDGE_CURVE ( 'NONE', #300, #353, #175, .T. ) ;
#241 = FACE_OUTER_BOUND ( 'NONE', #358, .T. ) ;
#242 = FACE_OUTER_BOUND ( 'NONE', #34, .T. ) ;
#243 = ADVANCED_FACE ( 'NONE', ( #294 ), #90, .T. ) ;
#244 = DIRECTION ( 'NONE',  ( -0.0000000000000000000, 1.000000000000000000, 0.0000000000000000000 ) ) ;
#245 = CARTESIAN_POINT ( 'NONE',  ( -36.70000000000000300, -55.02999999999999400, -60.00000000000000000 ) ) ;
#246 = APPLICATION_PROTOCOL_DEFINITION ( 'draft international standard', 'automotive_design', 1998, #155 ) ;
#247 = EDGE_CURVE ( 'NONE', #182, #43, #25, .T. ) ;
#248 = PRODUCT_DEFINITION_FORMATION_WITH_SPECIFIED_SOURCE ( 'ANY', '', #311, .NOT_KNOWN. ) ;
#249 = FILL_AREA_STYLE ('',( #217 ) ) ;
#250 = ORIENTED_EDGE ( 'NONE', *, *, #123, .T. ) ;
#251 = DIRECTION ( 'NONE',  ( 0.0000000000000000000, 0.0000000000000000000, -1.000000000000000000 ) ) ;
#252 = VECTOR ( 'NONE', #157, 1000.000000000000000 ) ;
#253 = VECTOR ( 'NONE', #343, 1000.000000000000000 ) ;
#254 = ORIENTED_EDGE ( 'NONE', *, *, #146, .T. ) ;
#255 = PLANE ( 'NONE',  #172 ) ;
#256 = VECTOR ( 'NONE', #170, 1000.000000000000000 ) ;
#257 = DIRECTION ( 'NONE',  ( -1.000000000000000000, -0.0000000000000000000, 0.0000000000000000000 ) ) ;
#258 = AXIS2_PLACEMENT_3D ( 'NONE', #66, #21, #251 ) ;
#259 = ORIENTED_EDGE ( 'NONE', *, *, #120, .F. ) ;
#260 = LINE ( 'NONE', #13, #71 ) ;
#261 = VERTEX_POINT ( 'NONE', #298 ) ;
#262 = AXIS2_PLACEMENT_3D ( 'NONE', #135, #166, #200 ) ;
#263 = CARTESIAN_POINT ( 'NONE',  ( -5.065392549852272000E-015, -55.02999999999999400, -60.00000000000000000 ) ) ;
#264 =( LENGTH_UNIT ( ) NAMED_UNIT ( * ) SI_UNIT ( .MILLI., .METRE. ) );
#265 = ORIENTED_EDGE ( 'NONE', *, *, #148, .F. ) ;
#266 = EDGE_LOOP ( 'NONE', ( #276, #341, #61, #342 ) ) ;
#267 = FILL_AREA_STYLE ('',( #269 ) ) ;
#268 = AXIS2_PLACEMENT_3D ( 'NONE', #234, #4, #206 ) ;
#269 = FILL_AREA_STYLE_COLOUR ( '', #307 ) ;
#270 = DIRECTION ( 'NONE',  ( -1.000000000000000000, -0.0000000000000000000, -0.0000000000000000000 ) ) ;
#271 = AXIS2_PLACEMENT_3D ( 'NONE', #39, #94, #221 ) ;
#272 = ORIENTED_EDGE ( 'NONE', *, *, #230, .T. ) ;
#273 = ADVANCED_FACE ( 'NONE', ( #233 ), #119, .T. ) ;
#274 = DIRECTION ( 'NONE',  ( -0.0000000000000000000, 0.0000000000000000000, -1.000000000000000000 ) ) ;
#275 = EDGE_LOOP ( 'NONE', ( #8, #162, #9, #140 ) ) ;
#276 = ORIENTED_EDGE ( 'NONE', *, *, #209, .F. ) ;
#277 = CARTESIAN_POINT ( 'NONE',  ( -36.70000000000000300, 60.00000000000000000, -60.00000000000000000 ) ) ;
#278 = DIRECTION ( 'NONE',  ( 0.0000000000000000000, -0.0000000000000000000, -1.000000000000000000 ) ) ;
#279 = LINE ( 'NONE', #180, #345 ) ;
#280 = STYLED_ITEM ( 'NONE', ( #132 ), #202 ) ;
#281 = DIRECTION ( 'NONE',  ( -0.0000000000000000000, 1.000000000000000000, 0.0000000000000000000 ) ) ;
#282 = ORIENTED_EDGE ( 'NONE', *, *, #194, .T. ) ;
#283 = ORIENTED_EDGE ( 'NONE', *, *, #198, .T. ) ;
#284 = FACE_OUTER_BOUND ( 'NONE', #275, .T. ) ;
#285 =( GEOMETRIC_REPRESENTATION_CONTEXT ( 3 ) GLOBAL_UNCERTAINTY_ASSIGNED_CONTEXT ( ( #319 ) ) GLOBAL_UNIT_ASSIGNED_CONTEXT ( ( #218, #96, #95 ) ) REPRESENTATION_CONTEXT ( 'NONE', 'WORKASPACE' ) );
#286 = CARTESIAN_POINT ( 'NONE',  ( 861.7000000000000500, -60.00000000000000000, 0.0000000000000000000 ) ) ;
#287 = CARTESIAN_POINT ( 'NONE',  ( -2.220446049250309900E-015, 53.00000000000000000, -59.00000000000000700 ) ) ;
#288 = CARTESIAN_POINT ( 'NONE',  ( -6.938893903907228400E-015, 60.00000000000000000, -60.00000000000000000 ) ) ;
#289 = VECTOR ( 'NONE', #46, 1000.000000000000000 ) ;
#290 = ORIENTED_EDGE ( 'NONE', *, *, #167, .T. ) ;
#291 = DIRECTION ( 'NONE',  ( 0.0000000000000000000, -0.0000000000000000000, 1.000000000000000000 ) ) ;
#292 = DIRECTION ( 'NONE',  ( -0.0000000000000000000, 1.000000000000000000, 0.0000000000000000000 ) ) ;
#293 = CARTESIAN_POINT ( 'NONE',  ( -36.70000000000000300, 0.0000000000000000000, -60.00000000000000000 ) ) ;
#294 = FACE_OUTER_BOUND ( 'NONE', #122, .T. ) ;
#295 = DIRECTION ( 'NONE',  ( -0.0000000000000000000, 0.0000000000000000000, 1.000000000000000000 ) ) ;
#296 = ORIENTED_EDGE ( 'NONE', *, *, #84, .T. ) ;
#297 = CARTESIAN_POINT ( 'NONE',  ( 825.0000000000001100, 53.00000000000000000, -59.00000000000000700 ) ) ;
#298 = CARTESIAN_POINT ( 'NONE',  ( -5.065392549852272000E-015, 53.00000000000000000, -60.00000000000000000 ) ) ;
#299 = APPLICATION_CONTEXT ( 'automotive_design' ) ;
#300 = VERTEX_POINT ( 'NONE', #277 ) ;
#301 = VERTEX_POINT ( 'NONE', #184 ) ;
#302 = CARTESIAN_POINT ( 'NONE',  ( -4.440892098500619900E-015, 53.00000000000000000, -60.00000000000000000 ) ) ;
#303 = LINE ( 'NONE', #288, #289 ) ;
#304 = PRESENTATION_LAYER_ASSIGNMENT (  '', '', ( #53 ) ) ;
#305 = ORIENTED_EDGE ( 'NONE', *, *, #101, .F. ) ;
#306 = MECHANICAL_DESIGN_GEOMETRIC_PRESENTATION_REPRESENTATION (  '', ( #53 ), #33 ) ;
#307 = COLOUR_RGB ( '',0.8745098039215686300, 0.9137254901960784000, 1.000000000000000000 ) ;
#308 = VECTOR ( 'NONE', #291, 1000.000000000000000 ) ;
#309 = CARTESIAN_POINT ( 'NONE',  ( -36.70000000000000300, -60.00000000000000000, 3.816391647148975600E-014 ) ) ;
#310 = CARTESIAN_POINT ( 'NONE',  ( 825.0000000000001100, 53.00000000000000000, -60.00000000000000000 ) ) ;
#311 = PRODUCT ( '6530015_CNAJF00', '6530015_CNAJF00', '', ( #326 ) ) ;
#312 = VECTOR ( 'NONE', #274, 1000.000000000000000 ) ;
#313 = DIRECTION ( 'NONE',  ( -1.000000000000000000, 0.0000000000000000000, -0.0000000000000000000 ) ) ;
#314 = ORIENTED_EDGE ( 'NONE', *, *, #62, .T. ) ;
#315 = ORIENTED_EDGE ( 'NONE', *, *, #129, .T. ) ;
#316 = DIRECTION ( 'NONE',  ( 0.0000000000000000000, -1.000000000000000000, -0.0000000000000000000 ) ) ;
#317 = CARTESIAN_POINT ( 'NONE',  ( 861.7000000000000500, 60.00000000000000000, -60.00000000000000000 ) ) ;
#318 = SURFACE_SIDE_STYLE ('',( #229 ) ) ;
#319 = UNCERTAINTY_MEASURE_WITH_UNIT (LENGTH_MEASURE( 1.000000000000000100E-005 ), #218, 'distance_accuracy_value', 'NONE');
#320 = VECTOR ( 'NONE', #281, 1000.000000000000000 ) ;
#321 = SURFACE_SIDE_STYLE ('',( #115 ) ) ;
#322 = ADVANCED_FACE ( 'NONE', ( #5 ), #187, .T. ) ;
#323 = SURFACE_STYLE_USAGE ( .BOTH. , #318 ) ;
#324 = DIRECTION ( 'NONE',  ( -0.0000000000000000000, 1.000000000000000000, 0.0000000000000000000 ) ) ;
#325 =( LENGTH_UNIT ( ) NAMED_UNIT ( * ) SI_UNIT ( .MILLI., .METRE. ) );
#326 = PRODUCT_CONTEXT ( 'NONE', #155, 'mechanical' ) ;
#327 = PRESENTATION_LAYER_ASSIGNMENT (  '', '', ( #280 ) ) ;
#328 = VERTEX_POINT ( 'NONE', #124 ) ;
#329 = CARTESIAN_POINT ( 'NONE',  ( 825.0000000000001100, 60.00000000000000000, -60.00000000000000000 ) ) ;
#330 =( NAMED_UNIT ( * ) PLANE_ANGLE_UNIT ( ) SI_UNIT ( $, .RADIAN. ) );
#331 = ORIENTED_EDGE ( 'NONE', *, *, #125, .T. ) ;
#332 = AXIS2_PLACEMENT_3D ( 'NONE', #179, #92, #37 ) ;
#333 = ORIENTED_EDGE ( 'NONE', *, *, #91, .T. ) ;
#334 = CARTESIAN_POINT ( 'NONE',  ( -36.70000000000000300, 60.00000000000000000, -60.00000000000000000 ) ) ;
#335 = VECTOR ( 'NONE', #295, 1000.000000000000000 ) ;
#336 = PRESENTATION_STYLE_ASSIGNMENT (( #323 ) ) ;
#337 = PLANE ( 'NONE',  #268 ) ;
#338 = CARTESIAN_POINT ( 'NONE',  ( -4.440892098500619900E-015, 53.00000000000000000, -30.00000000000000000 ) ) ;
#339 = LINE ( 'NONE', #329, #28 ) ;
#340 = CARTESIAN_POINT ( 'NONE',  ( 861.7000000000000500, -2.309263891220330100E-013, -60.00000000000000000 ) ) ;
#341 = ORIENTED_EDGE ( 'NONE', *, *, #359, .F. ) ;
#342 = ORIENTED_EDGE ( 'NONE', *, *, #6, .F. ) ;
#343 = DIRECTION ( 'NONE',  ( 1.000000000000000000, 0.0000000000000000000, -0.0000000000000000000 ) ) ;
#344 = DIRECTION ( 'NONE',  ( -0.0000000000000000000, -0.0000000000000000000, 1.000000000000000000 ) ) ;
#345 = VECTOR ( 'NONE', #86, 1000.000000000000000 ) ;
#346 = LINE ( 'NONE', #340, #88 ) ;
#347 = CARTESIAN_POINT ( 'NONE',  ( -36.70000000000000300, 60.00000000000000000, -30.00000000000000000 ) ) ;
#348 = DIRECTION ( 'NONE',  ( 0.0000000000000000000, -0.0000000000000000000, 1.000000000000000000 ) ) ;
#349 = ADVANCED_FACE ( 'NONE', ( #214 ), #121, .T. ) ;
#350 = MECHANICAL_DESIGN_GEOMETRIC_PRESENTATION_REPRESENTATION (  '', ( #195 ), #49 ) ;
#351 = ORIENTED_EDGE ( 'NONE', *, *, #6, .T. ) ;
#352 = FACE_OUTER_BOUND ( 'NONE', #226, .T. ) ;
#353 = VERTEX_POINT ( 'NONE', #192 ) ;
#354 = ADVANCED_FACE ( 'NONE', ( #225 ), #99, .F. ) ;
#355 = SHAPE_DEFINITION_REPRESENTATION ( #228, #161 ) ;
#356 = FACE_OUTER_BOUND ( 'NONE', #205, .T. ) ;
#357 = LINE ( 'NONE', #108, #126 ) ;
#358 = EDGE_LOOP ( 'NONE', ( #26, #351, #7, #305 ) ) ;
#359 = EDGE_CURVE ( 'NONE', #43, #35, #339, .T. ) ;
ENDSEC;
END-ISO-10303-21;
