ISO-10303-21;
HEADER;
FILE_DESCRIPTION (( 'STEP AP214' ),
    '1' );
FILE_NAME ('6530456',
    '2019-01-31T12:11:21',
    ( '' ),
    ('JUGARD+KÜNSTNER GmbH'),
    'SwSTEP 2.0',
    'SolidWorks 2017',
    '' );
FILE_SCHEMA (( 'AUTOMOTIVE_DESIGN' ));
ENDSEC;

DATA;
#1 = AXIS2_PLACEMENT_3D ( 'NONE', #5, #61, #369 ) ;
#2 = DIRECTION ( 'NONE',  ( 1.000000000000000000, 0.0000000000000000000, 0.0000000000000000000 ) ) ;
#3 = LINE ( 'NONE', #239, #298 ) ;
#4 = VERTEX_POINT ( 'NONE', #136 ) ;
#5 = CARTESIAN_POINT ( 'NONE',  ( 38.00000000000000000, 24.25000000000000000, 0.0000000000000000000 ) ) ;
#6 = PRESENTATION_LAYER_ASSIGNMENT (  '', '', ( #138 ) ) ;
#7 = DIRECTION ( 'NONE',  ( 0.0000000000000000000, -0.0000000000000000000, -1.000000000000000000 ) ) ;
#8 = FACE_OUTER_BOUND ( 'NONE', #302, .T. ) ;
#9 = EDGE_LOOP ( 'NONE', ( #37, #152, #129, #217 ) ) ;
#10 = CARTESIAN_POINT ( 'NONE',  ( -38.00000000000000000, 30.75000000000000000, -600.0000000000000000 ) ) ;
#11 = CARTESIAN_POINT ( 'NONE',  ( 38.00000000000000000, 30.75000000000000000, -600.0000000000000000 ) ) ;
#12 = FACE_OUTER_BOUND ( 'NONE', #252, .T. ) ;
#13 = AXIS2_PLACEMENT_3D ( 'NONE', #110, #316, #2 ) ;
#14 = VERTEX_POINT ( 'NONE', #282 ) ;
#15 =( NAMED_UNIT ( * ) PLANE_ANGLE_UNIT ( ) SI_UNIT ( $, .RADIAN. ) );
#16 = ORIENTED_EDGE ( 'NONE', *, *, #244, .F. ) ;
#17 = VERTEX_POINT ( 'NONE', #28 ) ;
#18 = LINE ( 'NONE', #137, #320 ) ;
#19 = ORIENTED_EDGE ( 'NONE', *, *, #268, .F. ) ;
#20 = DIRECTION ( 'NONE',  ( 0.0000000000000000000, 0.0000000000000000000, -1.000000000000000000 ) ) ;
#21 = PRESENTATION_LAYER_ASSIGNMENT (  '', '', ( #335 ) ) ;
#22 = CARTESIAN_POINT ( 'NONE',  ( -38.00000000000000000, -24.25000000000000000, 0.0000000000000000000 ) ) ;
#23 = MECHANICAL_DESIGN_GEOMETRIC_PRESENTATION_REPRESENTATION (  '', ( #111 ), #80 ) ;
#24 = SURFACE_STYLE_USAGE ( .BOTH. , #253 ) ;
#25 = CYLINDRICAL_SURFACE ( 'NONE', #1, 55.00000000000000000 ) ;
#26 = VERTEX_POINT ( 'NONE', #192 ) ;
#27 = ORIENTED_EDGE ( 'NONE', *, *, #40, .T. ) ;
#28 = CARTESIAN_POINT ( 'NONE',  ( -38.00000000000000000, -30.75000000000000000, 300.0000000000000000 ) ) ;
#29 = PRODUCT_RELATED_PRODUCT_CATEGORY ( 'part', '', ( #50 ) ) ;
#30 = CARTESIAN_POINT ( 'NONE',  ( 72.49999999999998600, -18.58398183685472600, -600.0000000000000000 ) ) ;
#31 = EDGE_CURVE ( 'NONE', #281, #230, #171, .T. ) ;
#32 = CARTESIAN_POINT ( 'NONE',  ( 0.0000000000000000000, 30.75000000000000000, 300.0000000000000000 ) ) ;
#33 = DIRECTION ( 'NONE',  ( -0.0000000000000000000, 0.0000000000000000000, -1.000000000000000000 ) ) ;
#34 = COLOUR_RGB ( '',1.000000000000000000, 1.000000000000000000, 0.5999999999999999800 ) ;
#35 = ORIENTED_EDGE ( 'NONE', *, *, #31, .T. ) ;
#36 = SURFACE_SIDE_STYLE ('',( #52 ) ) ;
#37 = ORIENTED_EDGE ( 'NONE', *, *, #142, .T. ) ;
#38 =( NAMED_UNIT ( * ) PLANE_ANGLE_UNIT ( ) SI_UNIT ( $, .RADIAN. ) );
#39 = CARTESIAN_POINT ( 'NONE',  ( 72.50000000000000000, 18.58398183685471800, 300.0000000000000000 ) ) ;
#40 = EDGE_CURVE ( 'NONE', #164, #17, #97, .T. ) ;
#41 = DIRECTION ( 'NONE',  ( 0.0000000000000000000, 0.0000000000000000000, 1.000000000000000000 ) ) ;
#42 = CIRCLE ( 'NONE', #123, 55.00000000000000000 ) ;
#43 = MECHANICAL_DESIGN_GEOMETRIC_PRESENTATION_REPRESENTATION (  '', ( #335 ), #76 ) ;
#44 = MECHANICAL_DESIGN_GEOMETRIC_PRESENTATION_REPRESENTATION (  '', ( #138 ), #231 ) ;
#45 = ORIENTED_EDGE ( 'NONE', *, *, #205, .F. ) ;
#46 = ADVANCED_FACE ( 'NONE', ( #367 ), #62, .T. ) ;
#47 = ADVANCED_FACE ( 'NONE', ( #248 ), #365, .T. ) ;
#48 = DIRECTION ( 'NONE',  ( -0.0000000000000000000, -0.0000000000000000000, -1.000000000000000000 ) ) ;
#49 = EDGE_CURVE ( 'NONE', #187, #309, #317, .T. ) ;
#50 = PRODUCT ( '6530456_CNAJF00', '6530456_CNAJF00', '', ( #215 ) ) ;
#51 = DIRECTION ( 'NONE',  ( 1.000000000000000000, 0.0000000000000000000, -0.0000000000000000000 ) ) ;
#52 = SURFACE_STYLE_FILL_AREA ( #120 ) ;
#53 = CARTESIAN_POINT ( 'NONE',  ( 38.00000000000000000, 24.25000000000000000, 300.0000000000000000 ) ) ;
#54 = DIRECTION ( 'NONE',  ( 0.0000000000000000000, 0.0000000000000000000, 1.000000000000000000 ) ) ;
#55 = LINE ( 'NONE', #81, #145 ) ;
#56 = ORIENTED_EDGE ( 'NONE', *, *, #59, .F. ) ;
#57 = DIRECTION ( 'NONE',  ( -0.0000000000000000000, -0.0000000000000000000, 1.000000000000000000 ) ) ;
#58 = EDGE_CURVE ( 'NONE', #273, #230, #246, .T. ) ;
#59 = EDGE_CURVE ( 'NONE', #309, #164, #67, .T. ) ;
#60 = DIRECTION ( 'NONE',  ( -1.000000000000000000, -0.0000000000000000000, 0.0000000000000000000 ) ) ;
#61 = DIRECTION ( 'NONE',  ( 0.0000000000000000000, -0.0000000000000000000, 1.000000000000000000 ) ) ;
#62 = CYLINDRICAL_SURFACE ( 'NONE', #297, 55.00000000000000000 ) ;
#63 = ORIENTED_EDGE ( 'NONE', *, *, #157, .F. ) ;
#64 = CARTESIAN_POINT ( 'NONE',  ( 38.00000000000000000, -24.25000000000000000, 0.0000000000000000000 ) ) ;
#65 = PRESENTATION_LAYER_ASSIGNMENT (  '', '', ( #111 ) ) ;
#66 =( NAMED_UNIT ( * ) SI_UNIT ( $, .STERADIAN. ) SOLID_ANGLE_UNIT ( ) );
#67 = CIRCLE ( 'NONE', #169, 55.00000000000000000 ) ;
#68 = SURFACE_SIDE_STYLE ('',( #154 ) ) ;
#69 = APPLICATION_CONTEXT ( 'automotive_design' ) ;
#70 = EDGE_CURVE ( 'NONE', #14, #164, #155, .T. ) ;
#71 = DIRECTION ( 'NONE',  ( 1.000000000000000000, 0.0000000000000000000, 0.0000000000000000000 ) ) ;
#72 = EDGE_LOOP ( 'NONE', ( #56, #225, #140, #350, #368, #255, #91, #243 ) ) ;
#73 = ORIENTED_EDGE ( 'NONE', *, *, #355, .T. ) ;
#74 = SHAPE_DEFINITION_REPRESENTATION ( #338, #330 ) ;
#75 = DIRECTION ( 'NONE',  ( -0.0000000000000000000, 0.0000000000000000000, -1.000000000000000000 ) ) ;
#76 =( GEOMETRIC_REPRESENTATION_CONTEXT ( 3 ) GLOBAL_UNCERTAINTY_ASSIGNED_CONTEXT ( ( #172 ) ) GLOBAL_UNIT_ASSIGNED_CONTEXT ( ( #93, #353, #292 ) ) REPRESENTATION_CONTEXT ( 'NONE', 'WORKASPACE' ) );
#77 = COLOUR_RGB ( '',0.7019607843137254400, 0.7019607843137254400, 0.7019607843137254400 ) ;
#78 = ORIENTED_EDGE ( 'NONE', *, *, #157, .T. ) ;
#79 = DIRECTION ( 'NONE',  ( 1.000000000000000000, 0.0000000000000000000, 0.0000000000000000000 ) ) ;
#80 =( GEOMETRIC_REPRESENTATION_CONTEXT ( 3 ) GLOBAL_UNCERTAINTY_ASSIGNED_CONTEXT ( ( #265 ) ) GLOBAL_UNIT_ASSIGNED_CONTEXT ( ( #271, #15, #269 ) ) REPRESENTATION_CONTEXT ( 'NONE', 'WORKASPACE' ) );
#81 = CARTESIAN_POINT ( 'NONE',  ( 0.0000000000000000000, -30.75000000000000000, -600.0000000000000000 ) ) ;
#82 = SURFACE_STYLE_FILL_AREA ( #280 ) ;
#83 = CARTESIAN_POINT ( 'NONE',  ( 38.00000000000000000, -24.25000000000000000, -600.0000000000000000 ) ) ;
#84 = ORIENTED_EDGE ( 'NONE', *, *, #227, .F. ) ;
#85 = DIRECTION ( 'NONE',  ( 0.0000000000000000000, -0.0000000000000000000, -1.000000000000000000 ) ) ;
#86 = VERTEX_POINT ( 'NONE', #256 ) ;
#87 = DIRECTION ( 'NONE',  ( -1.000000000000000000, 0.0000000000000000000, 0.0000000000000000000 ) ) ;
#88 =( GEOMETRIC_REPRESENTATION_CONTEXT ( 3 ) GLOBAL_UNCERTAINTY_ASSIGNED_CONTEXT ( ( #126 ) ) GLOBAL_UNIT_ASSIGNED_CONTEXT ( ( #109, #278, #334 ) ) REPRESENTATION_CONTEXT ( 'NONE', 'WORKASPACE' ) );
#89 = PLANE ( 'NONE',  #166 ) ;
#90 = CARTESIAN_POINT ( 'NONE',  ( 0.0000000000000000000, -30.75000000000000000, 0.0000000000000000000 ) ) ;
#91 = ORIENTED_EDGE ( 'NONE', *, *, #295, .F. ) ;
#92 = DIRECTION ( 'NONE',  ( 0.0000000000000000000, -1.000000000000000000, -0.0000000000000000000 ) ) ;
#93 =( LENGTH_UNIT ( ) NAMED_UNIT ( * ) SI_UNIT ( .MILLI., .METRE. ) );
#94 = VECTOR ( 'NONE', #337, 1000.000000000000000 ) ;
#95 = VECTOR ( 'NONE', #132, 1000.000000000000000 ) ;
#96 = VECTOR ( 'NONE', #262, 1000.000000000000000 ) ;
#97 = LINE ( 'NONE', #342, #236 ) ;
#98 = ORIENTED_EDGE ( 'NONE', *, *, #205, .T. ) ;
#99 = ADVANCED_FACE ( 'NONE', ( #241 ), #229, .T. ) ;
#100 = CYLINDRICAL_SURFACE ( 'NONE', #307, 55.00000000000000700 ) ;
#101 = ADVANCED_FACE ( 'NONE', ( #8 ), #283, .T. ) ;
#102 = ORIENTED_EDGE ( 'NONE', *, *, #219, .F. ) ;
#103 = CARTESIAN_POINT ( 'NONE',  ( 0.0000000000000000000, 30.75000000000000000, 0.0000000000000000000 ) ) ;
#104 = AXIS2_PLACEMENT_3D ( 'NONE', #258, #87, #261 ) ;
#105 = DIRECTION ( 'NONE',  ( 0.0000000000000000000, 0.0000000000000000000, 1.000000000000000000 ) ) ;
#106 = FACE_OUTER_BOUND ( 'NONE', #351, .T. ) ;
#107 = ORIENTED_EDGE ( 'NONE', *, *, #288, .F. ) ;
#108 = ORIENTED_EDGE ( 'NONE', *, *, #355, .F. ) ;
#109 =( LENGTH_UNIT ( ) NAMED_UNIT ( * ) SI_UNIT ( .MILLI., .METRE. ) );
#110 = CARTESIAN_POINT ( 'NONE',  ( -38.00000000000000000, -24.25000000000000000, 300.0000000000000000 ) ) ;
#111 = STYLED_ITEM ( 'NONE', ( #127 ), #330 ) ;
#112 = CARTESIAN_POINT ( 'NONE',  ( 0.0000000000000000000, 30.75000000000000000, -600.0000000000000000 ) ) ;
#113 = CARTESIAN_POINT ( 'NONE',  ( -72.50000000000001400, -18.58398183685472600, 0.0000000000000000000 ) ) ;
#114 = EDGE_CURVE ( 'NONE', #135, #14, #55, .T. ) ;
#115 = CARTESIAN_POINT ( 'NONE',  ( 38.00000000000000000, -24.25000000000000000, 300.0000000000000000 ) ) ;
#116 = DIRECTION ( 'NONE',  ( 0.0000000000000000000, -0.0000000000000000000, 1.000000000000000000 ) ) ;
#117 =( LENGTH_UNIT ( ) NAMED_UNIT ( * ) SI_UNIT ( .MILLI., .METRE. ) );
#118 = CARTESIAN_POINT ( 'NONE',  ( 0.0000000000000000000, 0.0000000000000000000, 0.0000000000000000000 ) ) ;
#119 = CARTESIAN_POINT ( 'NONE',  ( 72.49999999999998600, -18.58398183685472600, 300.0000000000000000 ) ) ;
#120 = FILL_AREA_STYLE ('',( #208 ) ) ;
#121 = APPLICATION_PROTOCOL_DEFINITION ( 'draft international standard', 'automotive_design', 1998, #69 ) ;
#122 = AXIS2_PLACEMENT_3D ( 'NONE', #263, #207, #151 ) ;
#123 = AXIS2_PLACEMENT_3D ( 'NONE', #115, #143, #237 ) ;
#124 = FACE_OUTER_BOUND ( 'NONE', #362, .T. ) ;
#125 = PRODUCT_DEFINITION_CONTEXT ( 'detailed design', #69, 'design' ) ;
#126 = UNCERTAINTY_MEASURE_WITH_UNIT (LENGTH_MEASURE( 1.000000000000000100E-005 ), #109, 'distance_accuracy_value', 'NONE');
#127 = PRESENTATION_STYLE_ASSIGNMENT (( #324 ) ) ;
#128 = VECTOR ( 'NONE', #33, 1000.000000000000000 ) ;
#129 = ORIENTED_EDGE ( 'NONE', *, *, #59, .T. ) ;
#130 = EDGE_CURVE ( 'NONE', #281, #86, #202, .T. ) ;
#131 = DIRECTION ( 'NONE',  ( 0.0000000000000000000, -0.0000000000000000000, 1.000000000000000000 ) ) ;
#132 = DIRECTION ( 'NONE',  ( -0.0000000000000000000, 0.0000000000000000000, 1.000000000000000000 ) ) ;
#133 = LINE ( 'NONE', #165, #247 ) ;
#134 = ORIENTED_EDGE ( 'NONE', *, *, #130, .T. ) ;
#135 = VERTEX_POINT ( 'NONE', #173 ) ;
#136 = CARTESIAN_POINT ( 'NONE',  ( -72.50000000000001400, -18.58398183685472600, 300.0000000000000000 ) ) ;
#137 = CARTESIAN_POINT ( 'NONE',  ( 38.00000000000000000, 30.75000000000000000, 0.0000000000000000000 ) ) ;
#138 = STYLED_ITEM ( 'NONE', ( #162 ), #291 ) ;
#139 = PRESENTATION_STYLE_ASSIGNMENT (( #24 ) ) ;
#140 = ORIENTED_EDGE ( 'NONE', *, *, #219, .T. ) ;
#141 = DIRECTION ( 'NONE',  ( 1.000000000000000000, 0.0000000000000000000, 0.0000000000000000000 ) ) ;
#142 = EDGE_CURVE ( 'NONE', #14, #187, #259, .T. ) ;
#143 = DIRECTION ( 'NONE',  ( 0.0000000000000000000, 0.0000000000000000000, 1.000000000000000000 ) ) ;
#144 = CARTESIAN_POINT ( 'NONE',  ( 38.00000000000000000, -30.75000000000000000, 300.0000000000000000 ) ) ;
#145 = VECTOR ( 'NONE', #158, 1000.000000000000000 ) ;
#146 = DIRECTION ( 'NONE',  ( 0.0000000000000000000, 0.0000000000000000000, 1.000000000000000000 ) ) ;
#147 = SURFACE_STYLE_USAGE ( .BOTH. , #36 ) ;
#148 =( NAMED_UNIT ( * ) PLANE_ANGLE_UNIT ( ) SI_UNIT ( $, .RADIAN. ) );
#149 = EDGE_LOOP ( 'NONE', ( #73, #220, #177, #213 ) ) ;
#150 =( NAMED_UNIT ( * ) SI_UNIT ( $, .STERADIAN. ) SOLID_ANGLE_UNIT ( ) );
#151 = DIRECTION ( 'NONE',  ( 1.000000000000000000, 0.0000000000000000000, 0.0000000000000000000 ) ) ;
#152 = ORIENTED_EDGE ( 'NONE', *, *, #49, .T. ) ;
#153 = DIRECTION ( 'NONE',  ( 0.0000000000000000000, 0.0000000000000000000, 1.000000000000000000 ) ) ;
#154 = SURFACE_STYLE_FILL_AREA ( #245 ) ;
#155 = LINE ( 'NONE', #336, #95 ) ;
#156 = ORIENTED_EDGE ( 'NONE', *, *, #182, .F. ) ;
#157 = EDGE_CURVE ( 'NONE', #17, #135, #183, .T. ) ;
#158 = DIRECTION ( 'NONE',  ( 1.000000000000000000, 0.0000000000000000000, 0.0000000000000000000 ) ) ;
#159 = FACE_OUTER_BOUND ( 'NONE', #290, .T. ) ;
#160 = DIRECTION ( 'NONE',  ( 1.000000000000000000, 0.0000000000000000000, 0.0000000000000000000 ) ) ;
#161 = DIRECTION ( 'NONE',  ( 1.000000000000000000, 0.0000000000000000000, 0.0000000000000000000 ) ) ;
#162 = PRESENTATION_STYLE_ASSIGNMENT (( #147 ) ) ;
#163 = VECTOR ( 'NONE', #48, 1000.000000000000000 ) ;
#164 = VERTEX_POINT ( 'NONE', #144 ) ;
#165 = CARTESIAN_POINT ( 'NONE',  ( 72.50000000000000000, 18.58398183685470100, 0.0000000000000000000 ) ) ;
#166 = AXIS2_PLACEMENT_3D ( 'NONE', #209, #41, #181 ) ;
#167 = CARTESIAN_POINT ( 'NONE',  ( 72.50000000000000000, 0.0000000000000000000, 300.0000000000000000 ) ) ;
#168 = FILL_AREA_STYLE_COLOUR ( '', #34 ) ;
#169 = AXIS2_PLACEMENT_3D ( 'NONE', #53, #75, #161 ) ;
#170 = LINE ( 'NONE', #112, #272 ) ;
#171 = CIRCLE ( 'NONE', #277, 55.00000000000000000 ) ;
#172 = UNCERTAINTY_MEASURE_WITH_UNIT (LENGTH_MEASURE( 1.000000000000000100E-005 ), #93, 'distance_accuracy_value', 'NONE');
#173 = CARTESIAN_POINT ( 'NONE',  ( -38.00000000000000000, -30.75000000000000000, -600.0000000000000000 ) ) ;
#174 = DIRECTION ( 'NONE',  ( -0.0000000000000000000, 1.000000000000000000, 0.0000000000000000000 ) ) ;
#175 =( LENGTH_UNIT ( ) NAMED_UNIT ( * ) SI_UNIT ( .MILLI., .METRE. ) );
#176 = ORIENTED_EDGE ( 'NONE', *, *, #288, .T. ) ;
#177 = ORIENTED_EDGE ( 'NONE', *, *, #251, .F. ) ;
#178 = APPLICATION_CONTEXT ( 'automotive_design' ) ;
#179 = AXIS2_PLACEMENT_3D ( 'NONE', #83, #146, #232 ) ;
#180 = FILL_AREA_STYLE_COLOUR ( '', #279 ) ;
#181 = DIRECTION ( 'NONE',  ( 1.000000000000000000, 0.0000000000000000000, -0.0000000000000000000 ) ) ;
#182 = EDGE_CURVE ( 'NONE', #361, #86, #366, .T. ) ;
#183 = LINE ( 'NONE', #191, #206 ) ;
#184 =( GEOMETRIC_REPRESENTATION_CONTEXT ( 3 ) GLOBAL_UNCERTAINTY_ASSIGNED_CONTEXT ( ( #274 ) ) GLOBAL_UNIT_ASSIGNED_CONTEXT ( ( #117, #38, #150 ) ) REPRESENTATION_CONTEXT ( 'NONE', 'WORKASPACE' ) );
#185 = ADVANCED_FACE ( 'NONE', ( #159 ), #347, .T. ) ;
#186 = EDGE_CURVE ( 'NONE', #86, #273, #345, .T. ) ;
#187 = VERTEX_POINT ( 'NONE', #30 ) ;
#188 = ORIENTED_EDGE ( 'NONE', *, *, #275, .T. ) ;
#189 = LINE ( 'NONE', #238, #348 ) ;
#190 = STYLED_ITEM ( 'NONE', ( #139 ), #101 ) ;
#191 = CARTESIAN_POINT ( 'NONE',  ( -38.00000000000000000, -30.75000000000000000, 0.0000000000000000000 ) ) ;
#192 = CARTESIAN_POINT ( 'NONE',  ( 72.50000000000000000, 18.58398183685471800, -600.0000000000000000 ) ) ;
#193 = DIRECTION ( 'NONE',  ( 0.0000000000000000000, -0.0000000000000000000, 1.000000000000000000 ) ) ;
#194 = VECTOR ( 'NONE', #174, 1000.000000000000000 ) ;
#195 = ORIENTED_EDGE ( 'NONE', *, *, #295, .T. ) ;
#196 = FILL_AREA_STYLE_COLOUR ( '', #293 ) ;
#197 = PRODUCT_DEFINITION_FORMATION_WITH_SPECIFIED_SOURCE ( 'ANY', '', #50, .NOT_KNOWN. ) ;
#198 = CARTESIAN_POINT ( 'NONE',  ( -72.50000000000000000, 18.58398183685470100, 0.0000000000000000000 ) ) ;
#199 = DIRECTION ( 'NONE',  ( 0.0000000000000000000, -0.0000000000000000000, 1.000000000000000000 ) ) ;
#200 = AXIS2_PLACEMENT_3D ( 'NONE', #90, #296, #7 ) ;
#201 = LINE ( 'NONE', #319, #233 ) ;
#202 = LINE ( 'NONE', #363, #94 ) ;
#203 = CARTESIAN_POINT ( 'NONE',  ( -72.50000000000000000, 18.58398183685471100, 300.0000000000000000 ) ) ;
#204 = ORIENTED_EDGE ( 'NONE', *, *, #70, .T. ) ;
#205 = EDGE_CURVE ( 'NONE', #304, #281, #170, .T. ) ;
#206 = VECTOR ( 'NONE', #85, 1000.000000000000000 ) ;
#207 = DIRECTION ( 'NONE',  ( -0.0000000000000000000, 0.0000000000000000000, -1.000000000000000000 ) ) ;
#208 = FILL_AREA_STYLE_COLOUR ( '', #77 ) ;
#209 = CARTESIAN_POINT ( 'NONE',  ( 0.0000000000000000000, 0.0000000000000000000, -600.0000000000000000 ) ) ;
#210 = UNCERTAINTY_MEASURE_WITH_UNIT (LENGTH_MEASURE( 1.000000000000000100E-005 ), #175, 'distance_accuracy_value', 'NONE');
#211 = AXIS2_PLACEMENT_3D ( 'NONE', #64, #352, #323 ) ;
#212 = ORIENTED_EDGE ( 'NONE', *, *, #114, .T. ) ;
#213 = ORIENTED_EDGE ( 'NONE', *, *, #49, .F. ) ;
#214 = PRESENTATION_LAYER_ASSIGNMENT (  '', '', ( #190 ) ) ;
#215 = PRODUCT_CONTEXT ( 'NONE', #178, 'mechanical' ) ;
#216 = FACE_OUTER_BOUND ( 'NONE', #9, .T. ) ;
#217 = ORIENTED_EDGE ( 'NONE', *, *, #70, .F. ) ;
#218 = ORIENTED_EDGE ( 'NONE', *, *, #130, .F. ) ;
#219 = EDGE_CURVE ( 'NONE', #284, #361, #42, .T. ) ;
#220 = ORIENTED_EDGE ( 'NONE', *, *, #268, .T. ) ;
#221 = ADVANCED_FACE ( 'NONE', ( #216 ), #25, .T. ) ;
#222 = EDGE_CURVE ( 'NONE', #26, #304, #224, .T. ) ;
#223 = CARTESIAN_POINT ( 'NONE',  ( 72.50000000000000000, 0.0000000000000000000, 0.0000000000000000000 ) ) ;
#224 = CIRCLE ( 'NONE', #179, 55.00000000000000000 ) ;
#225 = ORIENTED_EDGE ( 'NONE', *, *, #251, .T. ) ;
#226 = CARTESIAN_POINT ( 'NONE',  ( 0.0000000000000000000, 0.0000000000000000000, 300.0000000000000000 ) ) ;
#227 = EDGE_CURVE ( 'NONE', #266, #135, #250, .T. ) ;
#228 = DIRECTION ( 'NONE',  ( -1.000000000000000000, -0.0000000000000000000, -0.0000000000000000000 ) ) ;
#229 = PLANE ( 'NONE',  #358 ) ;
#230 = VERTEX_POINT ( 'NONE', #235 ) ;
#231 =( GEOMETRIC_REPRESENTATION_CONTEXT ( 3 ) GLOBAL_UNCERTAINTY_ASSIGNED_CONTEXT ( ( #210 ) ) GLOBAL_UNIT_ASSIGNED_CONTEXT ( ( #175, #148, #66 ) ) REPRESENTATION_CONTEXT ( 'NONE', 'WORKASPACE' ) );
#232 = DIRECTION ( 'NONE',  ( 1.000000000000000000, 0.0000000000000000000, 0.0000000000000000000 ) ) ;
#233 = VECTOR ( 'NONE', #322, 1000.000000000000000 ) ;
#234 = CIRCLE ( 'NONE', #122, 55.00000000000000700 ) ;
#235 = CARTESIAN_POINT ( 'NONE',  ( -72.50000000000000000, 18.58398183685471100, -600.0000000000000000 ) ) ;
#236 = VECTOR ( 'NONE', #228, 1000.000000000000000 ) ;
#237 = DIRECTION ( 'NONE',  ( 1.000000000000000000, 0.0000000000000000000, 0.0000000000000000000 ) ) ;
#238 = CARTESIAN_POINT ( 'NONE',  ( -72.50000000000000000, 0.0000000000000000000, -600.0000000000000000 ) ) ;
#239 = CARTESIAN_POINT ( 'NONE',  ( -72.50000000000000000, 0.0000000000000000000, 300.0000000000000000 ) ) ;
#240 = CYLINDRICAL_SURFACE ( 'NONE', #211, 55.00000000000000000 ) ;
#241 = FACE_OUTER_BOUND ( 'NONE', #72, .T. ) ;
#242 = CARTESIAN_POINT ( 'NONE',  ( 38.00000000000000000, 30.75000000000000000, 300.0000000000000000 ) ) ;
#243 = ORIENTED_EDGE ( 'NONE', *, *, #40, .F. ) ;
#244 = EDGE_CURVE ( 'NONE', #361, #304, #18, .T. ) ;
#245 = FILL_AREA_STYLE ('',( #180 ) ) ;
#246 = LINE ( 'NONE', #198, #163 ) ;
#247 = VECTOR ( 'NONE', #57, 1000.000000000000000 ) ;
#248 = FACE_OUTER_BOUND ( 'NONE', #149, .T. ) ;
#249 = FACE_OUTER_BOUND ( 'NONE', #331, .T. ) ;
#250 = CIRCLE ( 'NONE', #314, 55.00000000000000700 ) ;
#251 = EDGE_CURVE ( 'NONE', #309, #284, #315, .T. ) ;
#252 = EDGE_LOOP ( 'NONE', ( #286, #108, #299, #341, #84, #107, #308, #45 ) ) ;
#253 = SURFACE_SIDE_STYLE ('',( #82 ) ) ;
#254 = DIRECTION ( 'NONE',  ( 0.0000000000000000000, 0.0000000000000000000, 1.000000000000000000 ) ) ;
#255 = ORIENTED_EDGE ( 'NONE', *, *, #303, .T. ) ;
#256 = CARTESIAN_POINT ( 'NONE',  ( -38.00000000000000000, 30.75000000000000000, 300.0000000000000000 ) ) ;
#257 = ORIENTED_EDGE ( 'NONE', *, *, #186, .F. ) ;
#258 = CARTESIAN_POINT ( 'NONE',  ( -72.50000000000000000, 0.0000000000000000000, 0.0000000000000000000 ) ) ;
#259 = CIRCLE ( 'NONE', #312, 55.00000000000000000 ) ;
#260 = ORIENTED_EDGE ( 'NONE', *, *, #227, .T. ) ;
#261 = DIRECTION ( 'NONE',  ( 0.0000000000000000000, 0.0000000000000000000, 1.000000000000000000 ) ) ;
#262 = DIRECTION ( 'NONE',  ( -1.000000000000000000, -0.0000000000000000000, 0.0000000000000000000 ) ) ;
#263 = CARTESIAN_POINT ( 'NONE',  ( -38.00000000000000000, 24.25000000000000000, 300.0000000000000000 ) ) ;
#264 = SURFACE_STYLE_FILL_AREA ( #344 ) ;
#265 = UNCERTAINTY_MEASURE_WITH_UNIT (LENGTH_MEASURE( 1.000000000000000100E-005 ), #271, 'distance_accuracy_value', 'NONE');
#266 = VERTEX_POINT ( 'NONE', #313 ) ;
#267 = DIRECTION ( 'NONE',  ( 1.000000000000000000, 0.0000000000000000000, 0.0000000000000000000 ) ) ;
#268 = EDGE_CURVE ( 'NONE', #26, #284, #133, .T. ) ;
#269 =( NAMED_UNIT ( * ) SI_UNIT ( $, .STERADIAN. ) SOLID_ANGLE_UNIT ( ) );
#270 = ADVANCED_FACE ( 'NONE', ( #106 ), #346, .T. ) ;
#271 =( LENGTH_UNIT ( ) NAMED_UNIT ( * ) SI_UNIT ( .MILLI., .METRE. ) );
#272 = VECTOR ( 'NONE', #60, 1000.000000000000000 ) ;
#273 = VERTEX_POINT ( 'NONE', #203 ) ;
#274 = UNCERTAINTY_MEASURE_WITH_UNIT (LENGTH_MEASURE( 1.000000000000000100E-005 ), #117, 'distance_accuracy_value', 'NONE');
#275 = EDGE_CURVE ( 'NONE', #4, #266, #289, .T. ) ;
#276 = CARTESIAN_POINT ( 'NONE',  ( 72.49999999999998600, -18.58398183685472900, 0.0000000000000000000 ) ) ;
#277 = AXIS2_PLACEMENT_3D ( 'NONE', #305, #105, #79 ) ;
#278 =( NAMED_UNIT ( * ) PLANE_ANGLE_UNIT ( ) SI_UNIT ( $, .RADIAN. ) );
#279 = COLOUR_RGB ( '',0.7529411764705882200, 0.7529411764705882200, 0.7529411764705882200 ) ;
#280 = FILL_AREA_STYLE ('',( #196 ) ) ;
#281 = VERTEX_POINT ( 'NONE', #10 ) ;
#282 = CARTESIAN_POINT ( 'NONE',  ( 38.00000000000000000, -30.75000000000000000, -600.0000000000000000 ) ) ;
#283 = PLANE ( 'NONE',  #364 ) ;
#284 = VERTEX_POINT ( 'NONE', #39 ) ;
#285 = CARTESIAN_POINT ( 'NONE',  ( -38.00000000000000000, 24.25000000000000000, -600.0000000000000000 ) ) ;
#286 = ORIENTED_EDGE ( 'NONE', *, *, #222, .F. ) ;
#287 = SURFACE_SIDE_STYLE ('',( #264 ) ) ;
#288 = EDGE_CURVE ( 'NONE', #230, #266, #189, .T. ) ;
#289 = LINE ( 'NONE', #113, #128 ) ;
#290 = EDGE_LOOP ( 'NONE', ( #176, #359, #327, #301 ) ) ;
#291 = MANIFOLD_SOLID_BREP ( 'Importiert1', #339 ) ;
#292 =( NAMED_UNIT ( * ) SI_UNIT ( $, .STERADIAN. ) SOLID_ANGLE_UNIT ( ) );
#293 = COLOUR_RGB ( '',0.5999999999999999800, 0.5999999999999999800, 0.5999999999999999800 ) ;
#294 = EDGE_LOOP ( 'NONE', ( #35, #333, #257, #218 ) ) ;
#295 = EDGE_CURVE ( 'NONE', #17, #4, #234, .T. ) ;
#296 = DIRECTION ( 'NONE',  ( 0.0000000000000000000, -1.000000000000000000, 0.0000000000000000000 ) ) ;
#297 = AXIS2_PLACEMENT_3D ( 'NONE', #22, #254, #160 ) ;
#298 = VECTOR ( 'NONE', #92, 1000.000000000000000 ) ;
#299 = ORIENTED_EDGE ( 'NONE', *, *, #142, .F. ) ;
#300 = ADVANCED_FACE ( 'NONE', ( #12 ), #89, .F. ) ;
#301 = ORIENTED_EDGE ( 'NONE', *, *, #58, .T. ) ;
#302 = EDGE_LOOP ( 'NONE', ( #98, #134, #156, #357 ) ) ;
#303 = EDGE_CURVE ( 'NONE', #273, #4, #3, .T. ) ;
#304 = VERTEX_POINT ( 'NONE', #11 ) ;
#305 = CARTESIAN_POINT ( 'NONE',  ( -38.00000000000000000, -24.25000000000000000, -600.0000000000000000 ) ) ;
#306 = DIRECTION ( 'NONE',  ( -0.0000000000000000000, 1.000000000000000000, 0.0000000000000000000 ) ) ;
#307 = AXIS2_PLACEMENT_3D ( 'NONE', #349, #116, #267 ) ;
#308 = ORIENTED_EDGE ( 'NONE', *, *, #31, .F. ) ;
#309 = VERTEX_POINT ( 'NONE', #119 ) ;
#310 = CARTESIAN_POINT ( 'NONE',  ( 38.00000000000000000, 24.25000000000000000, -600.0000000000000000 ) ) ;
#311 = DIRECTION ( 'NONE',  ( 1.000000000000000000, 0.0000000000000000000, 0.0000000000000000000 ) ) ;
#312 = AXIS2_PLACEMENT_3D ( 'NONE', #310, #199, #311 ) ;
#313 = CARTESIAN_POINT ( 'NONE',  ( -72.50000000000001400, -18.58398183685472600, -600.0000000000000000 ) ) ;
#314 = AXIS2_PLACEMENT_3D ( 'NONE', #285, #318, #141 ) ;
#315 = LINE ( 'NONE', #167, #194 ) ;
#316 = DIRECTION ( 'NONE',  ( 0.0000000000000000000, 0.0000000000000000000, 1.000000000000000000 ) ) ;
#317 = LINE ( 'NONE', #276, #321 ) ;
#318 = DIRECTION ( 'NONE',  ( 0.0000000000000000000, -0.0000000000000000000, 1.000000000000000000 ) ) ;
#319 = CARTESIAN_POINT ( 'NONE',  ( 72.50000000000000000, 0.0000000000000000000, -600.0000000000000000 ) ) ;
#320 = VECTOR ( 'NONE', #343, 1000.000000000000000 ) ;
#321 = VECTOR ( 'NONE', #193, 1000.000000000000000 ) ;
#322 = DIRECTION ( 'NONE',  ( -0.0000000000000000000, 1.000000000000000000, 0.0000000000000000000 ) ) ;
#323 = DIRECTION ( 'NONE',  ( 1.000000000000000000, 0.0000000000000000000, 0.0000000000000000000 ) ) ;
#324 = SURFACE_STYLE_USAGE ( .BOTH. , #68 ) ;
#325 = AXIS2_PLACEMENT_3D ( 'NONE', #118, #153, #71 ) ;
#326 = PRESENTATION_STYLE_ASSIGNMENT (( #372 ) ) ;
#327 = ORIENTED_EDGE ( 'NONE', *, *, #303, .F. ) ;
#328 = MECHANICAL_DESIGN_GEOMETRIC_PRESENTATION_REPRESENTATION (  '', ( #190 ), #88 ) ;
#329 = ADVANCED_FACE ( 'NONE', ( #124 ), #240, .T. ) ;
#330 = ADVANCED_BREP_SHAPE_REPRESENTATION ( '6530456_CNAJF00', ( #291, #325 ), #184 ) ;
#331 = EDGE_LOOP ( 'NONE', ( #260, #63, #195, #188 ) ) ;
#332 = PRODUCT_DEFINITION ( 'UNKNOWN', '', #197, #125 ) ;
#333 = ORIENTED_EDGE ( 'NONE', *, *, #58, .F. ) ;
#334 =( NAMED_UNIT ( * ) SI_UNIT ( $, .STERADIAN. ) SOLID_ANGLE_UNIT ( ) );
#335 = STYLED_ITEM ( 'NONE', ( #326 ), #270 ) ;
#336 = CARTESIAN_POINT ( 'NONE',  ( 38.00000000000000000, -30.75000000000000000, 0.0000000000000000000 ) ) ;
#337 = DIRECTION ( 'NONE',  ( 0.0000000000000000000, -0.0000000000000000000, 1.000000000000000000 ) ) ;
#338 = PRODUCT_DEFINITION_SHAPE ( 'NONE', 'NONE',  #332 ) ;
#339 = CLOSED_SHELL ( 'NONE', ( #270, #221, #300, #360, #99, #47, #101, #329, #185, #46 ) ) ;
#340 = DIRECTION ( 'NONE',  ( 1.000000000000000000, 0.0000000000000000000, 0.0000000000000000000 ) ) ;
#341 = ORIENTED_EDGE ( 'NONE', *, *, #114, .F. ) ;
#342 = CARTESIAN_POINT ( 'NONE',  ( 0.0000000000000000000, -30.75000000000000000, 300.0000000000000000 ) ) ;
#343 = DIRECTION ( 'NONE',  ( -0.0000000000000000000, 0.0000000000000000000, -1.000000000000000000 ) ) ;
#344 = FILL_AREA_STYLE ('',( #168 ) ) ;
#345 = CIRCLE ( 'NONE', #13, 55.00000000000000000 ) ;
#346 = PLANE ( 'NONE',  #200 ) ;
#347 = PLANE ( 'NONE',  #104 ) ;
#348 = VECTOR ( 'NONE', #356, 1000.000000000000000 ) ;
#349 = CARTESIAN_POINT ( 'NONE',  ( -38.00000000000000000, 24.25000000000000000, 0.0000000000000000000 ) ) ;
#350 = ORIENTED_EDGE ( 'NONE', *, *, #182, .T. ) ;
#351 = EDGE_LOOP ( 'NONE', ( #212, #204, #27, #78 ) ) ;
#352 = DIRECTION ( 'NONE',  ( 0.0000000000000000000, 0.0000000000000000000, 1.000000000000000000 ) ) ;
#353 =( NAMED_UNIT ( * ) PLANE_ANGLE_UNIT ( ) SI_UNIT ( $, .RADIAN. ) );
#354 = APPLICATION_PROTOCOL_DEFINITION ( 'draft international standard', 'automotive_design', 1998, #178 ) ;
#355 = EDGE_CURVE ( 'NONE', #187, #26, #201, .T. ) ;
#356 = DIRECTION ( 'NONE',  ( 0.0000000000000000000, -1.000000000000000000, -0.0000000000000000000 ) ) ;
#357 = ORIENTED_EDGE ( 'NONE', *, *, #244, .T. ) ;
#358 = AXIS2_PLACEMENT_3D ( 'NONE', #226, #54, #51 ) ;
#359 = ORIENTED_EDGE ( 'NONE', *, *, #275, .F. ) ;
#360 = ADVANCED_FACE ( 'NONE', ( #249 ), #100, .T. ) ;
#361 = VERTEX_POINT ( 'NONE', #242 ) ;
#362 = EDGE_LOOP ( 'NONE', ( #370, #16, #102, #19 ) ) ;
#363 = CARTESIAN_POINT ( 'NONE',  ( -38.00000000000000000, 30.75000000000000000, 0.0000000000000000000 ) ) ;
#364 = AXIS2_PLACEMENT_3D ( 'NONE', #103, #306, #131 ) ;
#365 = PLANE ( 'NONE',  #371 ) ;
#366 = LINE ( 'NONE', #32, #96 ) ;
#367 = FACE_OUTER_BOUND ( 'NONE', #294, .T. ) ;
#368 = ORIENTED_EDGE ( 'NONE', *, *, #186, .T. ) ;
#369 = DIRECTION ( 'NONE',  ( 1.000000000000000000, 0.0000000000000000000, 0.0000000000000000000 ) ) ;
#370 = ORIENTED_EDGE ( 'NONE', *, *, #222, .T. ) ;
#371 = AXIS2_PLACEMENT_3D ( 'NONE', #223, #340, #20 ) ;
#372 = SURFACE_STYLE_USAGE ( .BOTH. , #287 ) ;
ENDSEC;
END-ISO-10303-21;
