ISO-10303-21;
HEADER;
FILE_DESCRIPTION (( 'STEP AP214' ),
    '1' );
FILE_NAME ('7228120',
    '2019-02-04T10:06:08',
    ( '' ),
    ('JUGARD+KÜNSTNER GmbH'),
    'SwSTEP 2.0',
    'SolidWorks 2017',
    '' );
FILE_SCHEMA (( 'AUTOMOTIVE_DESIGN' ));
ENDSEC;

DATA;
#1 = DIRECTION ( 'NONE',  ( -0.0000000000000000000, 1.000000000000000000, 0.0000000000000000000 ) ) ;
#2 = ORIENTED_EDGE ( 'NONE', *, *, #365, .T. ) ;
#3 = ORIENTED_EDGE ( 'NONE', *, *, #36, .T. ) ;
#4 = CARTESIAN_POINT ( 'NONE',  ( -3.200000000000000200, 3.500000000000000000, 2.000000000000000000 ) ) ;
#5 = ORIENTED_EDGE ( 'NONE', *, *, #188, .F. ) ;
#6 = CARTESIAN_POINT ( 'NONE',  ( 12.40000000000000200, -9.000000000000001800, 0.0000000000000000000 ) ) ;
#7 = EDGE_CURVE ( 'NONE', #113, #128, #217, .T. ) ;
#8 = CARTESIAN_POINT ( 'NONE',  ( 12.40000000000000200, 9.000000000000001800, 2.000000000000000000 ) ) ;
#9 = PLANE ( 'NONE',  #167 ) ;
#10 = LINE ( 'NONE', #89, #302 ) ;
#11 = ORIENTED_EDGE ( 'NONE', *, *, #354, .F. ) ;
#12 = DIRECTION ( 'NONE',  ( 0.0000000000000000000, 0.0000000000000000000, -1.000000000000000000 ) ) ;
#13 = COLOUR_RGB ( '',0.0000000000000000000, 0.0000000000000000000, 0.0000000000000000000 ) ;
#14 = ORIENTED_EDGE ( 'NONE', *, *, #19, .T. ) ;
#15 = VERTEX_POINT ( 'NONE', #307 ) ;
#16 = AXIS2_PLACEMENT_3D ( 'NONE', #220, #275, #243 ) ;
#17 = ORIENTED_EDGE ( 'NONE', *, *, #123, .F. ) ;
#18 = EDGE_CURVE ( 'NONE', #245, #229, #282, .T. ) ;
#19 = EDGE_CURVE ( 'NONE', #161, #345, #211, .T. ) ;
#20 = CYLINDRICAL_SURFACE ( 'NONE', #272, 3.500000000000000000 ) ;
#21 = FACE_OUTER_BOUND ( 'NONE', #46, .T. ) ;
#22 = CARTESIAN_POINT ( 'NONE',  ( 5.100000000000000500, -3.500000000000000000, 0.0000000000000000000 ) ) ;
#23 = EDGE_CURVE ( 'NONE', #338, #228, #77, .T. ) ;
#24 = VECTOR ( 'NONE', #170, 1000.000000000000000 ) ;
#25 = VERTEX_POINT ( 'NONE', #48 ) ;
#26 = ADVANCED_BREP_SHAPE_REPRESENTATION ( '7228120_CNAJF00', ( #368, #109 ), #309 ) ;
#27 = SURFACE_STYLE_FILL_AREA ( #266 ) ;
#28 = VERTEX_POINT ( 'NONE', #108 ) ;
#29 = DIRECTION ( 'NONE',  ( -0.0000000000000000000, -1.000000000000000000, -0.0000000000000000000 ) ) ;
#30 = ORIENTED_EDGE ( 'NONE', *, *, #81, .F. ) ;
#31 = DIRECTION ( 'NONE',  ( -1.000000000000000000, 0.0000000000000000000, 0.0000000000000000000 ) ) ;
#32 = FILL_AREA_STYLE ('',( #172 ) ) ;
#33 = CARTESIAN_POINT ( 'NONE',  ( -12.40000000000000200, 9.000000000000001800, 2.000000000000000000 ) ) ;
#34 = VERTEX_POINT ( 'NONE', #22 ) ;
#35 = ORIENTED_EDGE ( 'NONE', *, *, #298, .T. ) ;
#36 = EDGE_CURVE ( 'NONE', #28, #269, #357, .T. ) ;
#37 = CARTESIAN_POINT ( 'NONE',  ( 12.40000000000000200, 9.000000000000001800, 0.0000000000000000000 ) ) ;
#38 = AXIS2_PLACEMENT_3D ( 'NONE', #110, #276, #132 ) ;
#39 = ORIENTED_EDGE ( 'NONE', *, *, #319, .T. ) ;
#40 = ORIENTED_EDGE ( 'NONE', *, *, #319, .F. ) ;
#41 =( NAMED_UNIT ( * ) PLANE_ANGLE_UNIT ( ) SI_UNIT ( $, .RADIAN. ) );
#42 = APPLICATION_CONTEXT ( 'automotive_design' ) ;
#43 = ORIENTED_EDGE ( 'NONE', *, *, #18, .F. ) ;
#44 = AXIS2_PLACEMENT_3D ( 'NONE', #337, #247, #187 ) ;
#45 = LINE ( 'NONE', #4, #155 ) ;
#46 = EDGE_LOOP ( 'NONE', ( #329, #169, #35, #218 ) ) ;
#47 =( GEOMETRIC_REPRESENTATION_CONTEXT ( 3 ) GLOBAL_UNCERTAINTY_ASSIGNED_CONTEXT ( ( #72 ) ) GLOBAL_UNIT_ASSIGNED_CONTEXT ( ( #233, #288, #124 ) ) REPRESENTATION_CONTEXT ( 'NONE', 'WORKASPACE' ) );
#48 = CARTESIAN_POINT ( 'NONE',  ( -12.40000000000000200, -9.000000000000001800, 0.0000000000000000000 ) ) ;
#49 = FACE_OUTER_BOUND ( 'NONE', #88, .T. ) ;
#50 = CARTESIAN_POINT ( 'NONE',  ( 12.40000000000000200, 9.000000000000001800, 2.000000000000000000 ) ) ;
#51 = DIRECTION ( 'NONE',  ( 1.000000000000000000, -0.0000000000000000000, 0.0000000000000000000 ) ) ;
#52 = EDGE_CURVE ( 'NONE', #338, #161, #277, .T. ) ;
#53 = PLANE ( 'NONE',  #192 ) ;
#54 = CIRCLE ( 'NONE', #99, 3.500000000000000000 ) ;
#55 = DIRECTION ( 'NONE',  ( -1.000000000000000000, 0.0000000000000000000, 0.0000000000000000000 ) ) ;
#56 = AXIS2_PLACEMENT_3D ( 'NONE', #227, #315, #369 ) ;
#57 = DIRECTION ( 'NONE',  ( -0.0000000000000000000, -0.0000000000000000000, 1.000000000000000000 ) ) ;
#58 = ORIENTED_EDGE ( 'NONE', *, *, #123, .T. ) ;
#59 = DIRECTION ( 'NONE',  ( -0.0000000000000000000, -0.0000000000000000000, 1.000000000000000000 ) ) ;
#60 = ORIENTED_EDGE ( 'NONE', *, *, #144, .T. ) ;
#61 = CARTESIAN_POINT ( 'NONE',  ( 12.40000000000000200, -9.000000000000001800, 2.000000000000000000 ) ) ;
#62 = DIRECTION ( 'NONE',  ( 0.0000000000000000000, -1.000000000000000000, 0.0000000000000000000 ) ) ;
#63 = CARTESIAN_POINT ( 'NONE',  ( -3.199999999999999700, -3.500000000000000000, 0.0000000000000000000 ) ) ;
#64 = ORIENTED_EDGE ( 'NONE', *, *, #305, .T. ) ;
#65 = CARTESIAN_POINT ( 'NONE',  ( -12.40000000000000200, -9.000000000000001800, 2.000000000000000000 ) ) ;
#66 = APPLICATION_PROTOCOL_DEFINITION ( 'draft international standard', 'automotive_design', 1998, #42 ) ;
#67 = PRODUCT_RELATED_PRODUCT_CATEGORY ( 'part', '', ( #271 ) ) ;
#68 = ADVANCED_FACE ( 'NONE', ( #244 ), #135, .F. ) ;
#69 = CIRCLE ( 'NONE', #154, 3.500000000000000000 ) ;
#70 = ORIENTED_EDGE ( 'NONE', *, *, #23, .T. ) ;
#71 = SURFACE_SIDE_STYLE ('',( #27 ) ) ;
#72 = UNCERTAINTY_MEASURE_WITH_UNIT (LENGTH_MEASURE( 1.000000000000000100E-005 ), #233, 'distance_accuracy_value', 'NONE');
#73 = EDGE_LOOP ( 'NONE', ( #367, #70, #163, #327 ) ) ;
#74 = EDGE_CURVE ( 'NONE', #330, #338, #69, .T. ) ;
#75 = EDGE_CURVE ( 'NONE', #143, #161, #334, .T. ) ;
#76 = SURFACE_STYLE_FILL_AREA ( #32 ) ;
#77 = CIRCLE ( 'NONE', #44, 3.500000000000000000 ) ;
#78 = EDGE_LOOP ( 'NONE', ( #40, #248, #125, #316, #104 ) ) ;
#79 = ORIENTED_EDGE ( 'NONE', *, *, #75, .F. ) ;
#80 = CARTESIAN_POINT ( 'NONE',  ( 12.40000000000000200, -9.000000000000001800, 2.000000000000000000 ) ) ;
#81 = EDGE_CURVE ( 'NONE', #113, #34, #253, .T. ) ;
#82 = CARTESIAN_POINT ( 'NONE',  ( -3.200000000000000200, 0.0000000000000000000, 2.000000000000000000 ) ) ;
#83 = EDGE_LOOP ( 'NONE', ( #157, #366, #153, #310 ) ) ;
#84 = PLANE ( 'NONE',  #210 ) ;
#85 = CARTESIAN_POINT ( 'NONE',  ( -12.40000000000000200, 9.000000000000001800, 2.000000000000000000 ) ) ;
#86 = CARTESIAN_POINT ( 'NONE',  ( -12.40000000000000200, -9.000000000000001800, 2.000000000000000000 ) ) ;
#87 = DIRECTION ( 'NONE',  ( 0.0000000000000000000, 0.0000000000000000000, -1.000000000000000000 ) ) ;
#88 = EDGE_LOOP ( 'NONE', ( #156, #112, #17, #274 ) ) ;
#89 = CARTESIAN_POINT ( 'NONE',  ( 12.40000000000000200, 9.000000000000001800, 2.000000000000000000 ) ) ;
#90 = MECHANICAL_DESIGN_GEOMETRIC_PRESENTATION_REPRESENTATION (  '', ( #250 ), #47 ) ;
#91 = CARTESIAN_POINT ( 'NONE',  ( -12.40000000000000200, -9.000000000000001800, 2.000000000000000000 ) ) ;
#92 = SHAPE_DEFINITION_REPRESENTATION ( #242, #26 ) ;
#93 = LINE ( 'NONE', #65, #273 ) ;
#94 = DIRECTION ( 'NONE',  ( -1.000000000000000000, 0.0000000000000000000, -0.0000000000000000000 ) ) ;
#95 = ADVANCED_FACE ( 'NONE', ( #142 ), #178, .F. ) ;
#96 = DIRECTION ( 'NONE',  ( 1.000000000000000000, 0.0000000000000000000, 0.0000000000000000000 ) ) ;
#97 = PLANE ( 'NONE',  #116 ) ;
#98 =( NAMED_UNIT ( * ) PLANE_ANGLE_UNIT ( ) SI_UNIT ( $, .RADIAN. ) );
#99 = AXIS2_PLACEMENT_3D ( 'NONE', #283, #57, #117 ) ;
#100 = FACE_OUTER_BOUND ( 'NONE', #374, .T. ) ;
#101 = CARTESIAN_POINT ( 'NONE',  ( 0.0000000000000000000, 0.0000000000000000000, 0.0000000000000000000 ) ) ;
#102 = EDGE_CURVE ( 'NONE', #228, #113, #238, .T. ) ;
#103 = VECTOR ( 'NONE', #317, 1000.000000000000000 ) ;
#104 = ORIENTED_EDGE ( 'NONE', *, *, #74, .F. ) ;
#105 = ORIENTED_EDGE ( 'NONE', *, *, #298, .F. ) ;
#106 = FACE_BOUND ( 'NONE', #78, .T. ) ;
#107 = ORIENTED_EDGE ( 'NONE', *, *, #7, .T. ) ;
#108 = CARTESIAN_POINT ( 'NONE',  ( 12.40000000000000200, 9.000000000000001800, 2.000000000000000000 ) ) ;
#109 = AXIS2_PLACEMENT_3D ( 'NONE', #101, #237, #291 ) ;
#110 = CARTESIAN_POINT ( 'NONE',  ( -3.200000000000000200, 0.0000000000000000000, 0.0000000000000000000 ) ) ;
#111 = DIRECTION ( 'NONE',  ( -0.0000000000000000000, 1.000000000000000000, 0.0000000000000000000 ) ) ;
#112 = ORIENTED_EDGE ( 'NONE', *, *, #158, .F. ) ;
#113 = VERTEX_POINT ( 'NONE', #252 ) ;
#114 = LINE ( 'NONE', #342, #137 ) ;
#115 = DIRECTION ( 'NONE',  ( 0.0000000000000000000, 0.0000000000000000000, -1.000000000000000000 ) ) ;
#116 = AXIS2_PLACEMENT_3D ( 'NONE', #8, #146, #320 ) ;
#117 = DIRECTION ( 'NONE',  ( -1.000000000000000000, 0.0000000000000000000, 0.0000000000000000000 ) ) ;
#118 = CARTESIAN_POINT ( 'NONE',  ( -3.200000000000000200, -3.500000000000000000, 0.0000000000000000000 ) ) ;
#119 = DIRECTION ( 'NONE',  ( -1.000000000000000000, -0.0000000000000000000, -0.0000000000000000000 ) ) ;
#120 = EDGE_LOOP ( 'NONE', ( #58, #3, #364, #122 ) ) ;
#121 = DIRECTION ( 'NONE',  ( 0.0000000000000000000, -0.0000000000000000000, -1.000000000000000000 ) ) ;
#122 = ORIENTED_EDGE ( 'NONE', *, *, #18, .T. ) ;
#123 = EDGE_CURVE ( 'NONE', #229, #28, #10, .T. ) ;
#124 =( NAMED_UNIT ( * ) SI_UNIT ( $, .STERADIAN. ) SOLID_ANGLE_UNIT ( ) );
#125 = ORIENTED_EDGE ( 'NONE', *, *, #102, .F. ) ;
#126 = PRODUCT_CONTEXT ( 'NONE', #179, 'mechanical' ) ;
#127 = FACE_OUTER_BOUND ( 'NONE', #180, .T. ) ;
#128 = VERTEX_POINT ( 'NONE', #225 ) ;
#129 = EDGE_CURVE ( 'NONE', #260, #344, #372, .T. ) ;
#130 = LINE ( 'NONE', #118, #343 ) ;
#131 = VECTOR ( 'NONE', #139, 1000.000000000000000 ) ;
#132 = DIRECTION ( 'NONE',  ( -1.000000000000000000, 0.0000000000000000000, 0.0000000000000000000 ) ) ;
#133 = FACE_BOUND ( 'NONE', #168, .T. ) ;
#134 = ORIENTED_EDGE ( 'NONE', *, *, #279, .F. ) ;
#135 = PLANE ( 'NONE',  #328 ) ;
#136 = CARTESIAN_POINT ( 'NONE',  ( -3.200000000000000200, 0.0000000000000000000, 2.000000000000000000 ) ) ;
#137 = VECTOR ( 'NONE', #1, 1000.000000000000000 ) ;
#138 = CLOSED_SHELL ( 'NONE', ( #95, #203, #206, #350, #240, #292, #352, #68, #268, #231, #148 ) ) ;
#139 = DIRECTION ( 'NONE',  ( 0.0000000000000000000, 0.0000000000000000000, -1.000000000000000000 ) ) ;
#140 = DIRECTION ( 'NONE',  ( 1.000000000000000000, -0.0000000000000000000, 0.0000000000000000000 ) ) ;
#141 = CARTESIAN_POINT ( 'NONE',  ( 12.40000000000000200, 9.000000000000001800, 0.0000000000000000000 ) ) ;
#142 = FACE_OUTER_BOUND ( 'NONE', #340, .T. ) ;
#143 = VERTEX_POINT ( 'NONE', #197 ) ;
#144 = EDGE_CURVE ( 'NONE', #245, #269, #209, .T. ) ;
#145 = DIRECTION ( 'NONE',  ( -0.0000000000000000000, -1.000000000000000000, 0.0000000000000000000 ) ) ;
#146 = DIRECTION ( 'NONE',  ( -1.000000000000000000, 0.0000000000000000000, 0.0000000000000000000 ) ) ;
#147 = LINE ( 'NONE', #37, #215 ) ;
#148 = ADVANCED_FACE ( 'NONE', ( #133, #127 ), #84, .T. ) ;
#149 = VECTOR ( 'NONE', #165, 1000.000000000000000 ) ;
#150 = CARTESIAN_POINT ( 'NONE',  ( 12.40000000000000200, 3.499999999999999600, 2.000000000000000000 ) ) ;
#151 = AXIS2_PLACEMENT_3D ( 'NONE', #348, #62, #121 ) ;
#152 = EDGE_LOOP ( 'NONE', ( #39, #64, #254, #363 ) ) ;
#153 = ORIENTED_EDGE ( 'NONE', *, *, #354, .T. ) ;
#154 = AXIS2_PLACEMENT_3D ( 'NONE', #82, #303, #335 ) ;
#155 = VECTOR ( 'NONE', #12, 1000.000000000000000 ) ;
#156 = ORIENTED_EDGE ( 'NONE', *, *, #129, .F. ) ;
#157 = ORIENTED_EDGE ( 'NONE', *, *, #102, .T. ) ;
#158 = EDGE_CURVE ( 'NONE', #28, #260, #185, .T. ) ;
#159 = DIRECTION ( 'NONE',  ( -0.0000000000000000000, -0.0000000000000000000, -1.000000000000000000 ) ) ;
#160 = LINE ( 'NONE', #325, #24 ) ;
#161 = VERTEX_POINT ( 'NONE', #311 ) ;
#162 = DIRECTION ( 'NONE',  ( 1.000000000000000000, 0.0000000000000000000, 0.0000000000000000000 ) ) ;
#163 = ORIENTED_EDGE ( 'NONE', *, *, #257, .F. ) ;
#164 = DIRECTION ( 'NONE',  ( -1.000000000000000000, 0.0000000000000000000, -0.0000000000000000000 ) ) ;
#165 = DIRECTION ( 'NONE',  ( 0.0000000000000000000, 0.0000000000000000000, -1.000000000000000000 ) ) ;
#166 = LINE ( 'NONE', #6, #262 ) ;
#167 = AXIS2_PLACEMENT_3D ( 'NONE', #232, #207, #259 ) ;
#168 = EDGE_LOOP ( 'NONE', ( #11, #183, #134, #285, #14 ) ) ;
#169 = ORIENTED_EDGE ( 'NONE', *, *, #158, .T. ) ;
#170 = DIRECTION ( 'NONE',  ( -0.0000000000000000000, 0.0000000000000000000, 1.000000000000000000 ) ) ;
#171 = SURFACE_STYLE_USAGE ( .BOTH. , #230 ) ;
#172 = FILL_AREA_STYLE_COLOUR ( '', #13 ) ;
#173 = ORIENTED_EDGE ( 'NONE', *, *, #305, .F. ) ;
#174 = AXIS2_PLACEMENT_3D ( 'NONE', #249, #280, #373 ) ;
#175 = ORIENTED_EDGE ( 'NONE', *, *, #219, .F. ) ;
#176 = CARTESIAN_POINT ( 'NONE',  ( 12.40000000000000200, 9.000000000000001800, 0.0000000000000000000 ) ) ;
#177 = DIRECTION ( 'NONE',  ( -1.000000000000000000, -0.0000000000000000000, -0.0000000000000000000 ) ) ;
#178 = CYLINDRICAL_SURFACE ( 'NONE', #174, 3.500000000000000000 ) ;
#179 = APPLICATION_CONTEXT ( 'automotive_design' ) ;
#180 = EDGE_LOOP ( 'NONE', ( #2, #186, #265, #60 ) ) ;
#181 =( NAMED_UNIT ( * ) SI_UNIT ( $, .STERADIAN. ) SOLID_ANGLE_UNIT ( ) );
#182 = MECHANICAL_DESIGN_GEOMETRIC_PRESENTATION_REPRESENTATION (  '', ( #370 ), #284 ) ;
#183 = ORIENTED_EDGE ( 'NONE', *, *, #188, .T. ) ;
#184 = FACE_OUTER_BOUND ( 'NONE', #278, .T. ) ;
#185 = LINE ( 'NONE', #193, #349 ) ;
#186 = ORIENTED_EDGE ( 'NONE', *, *, #324, .T. ) ;
#187 = DIRECTION ( 'NONE',  ( -1.000000000000000000, 0.0000000000000000000, 0.0000000000000000000 ) ) ;
#188 = EDGE_CURVE ( 'NONE', #34, #15, #54, .T. ) ;
#189 = PRODUCT_DEFINITION_CONTEXT ( 'detailed design', #42, 'design' ) ;
#190 = CARTESIAN_POINT ( 'NONE',  ( -6.700000000000000200, 0.0000000000000000000, 2.000000000000000000 ) ) ;
#191 = DIRECTION ( 'NONE',  ( 0.0000000000000000000, -0.0000000000000000000, 1.000000000000000000 ) ) ;
#192 = AXIS2_PLACEMENT_3D ( 'NONE', #255, #115, #164 ) ;
#193 = CARTESIAN_POINT ( 'NONE',  ( 12.40000000000000200, -9.000000000000001800, 2.000000000000000000 ) ) ;
#194 = DIRECTION ( 'NONE',  ( 0.0000000000000000000, 0.0000000000000000000, -1.000000000000000000 ) ) ;
#195 = FACE_OUTER_BOUND ( 'NONE', #120, .T. ) ;
#196 = DIRECTION ( 'NONE',  ( 0.0000000000000000000, -1.000000000000000000, 0.0000000000000000000 ) ) ;
#197 = CARTESIAN_POINT ( 'NONE',  ( -3.200000000000000200, 3.500000000000000000, 0.0000000000000000000 ) ) ;
#198 = CARTESIAN_POINT ( 'NONE',  ( -3.199999999999999700, 3.499999999999999600, 2.000000000000000000 ) ) ;
#199 = PRODUCT_DEFINITION ( 'UNKNOWN', '', #331, #189 ) ;
#200 = VECTOR ( 'NONE', #162, 1000.000000000000000 ) ;
#201 = ORIENTED_EDGE ( 'NONE', *, *, #129, .T. ) ;
#202 = DIRECTION ( 'NONE',  ( 1.000000000000000000, 0.0000000000000000000, 0.0000000000000000000 ) ) ;
#203 = ADVANCED_FACE ( 'NONE', ( #106, #49 ), #53, .F. ) ;
#204 = CARTESIAN_POINT ( 'NONE',  ( -3.199999999999999700, -3.500000000000000000, 2.000000000000000000 ) ) ;
#205 = UNCERTAINTY_MEASURE_WITH_UNIT (LENGTH_MEASURE( 1.000000000000000100E-005 ), #296, 'distance_accuracy_value', 'NONE');
#206 = ADVANCED_FACE ( 'NONE', ( #216 ), #290, .F. ) ;
#207 = DIRECTION ( 'NONE',  ( -0.0000000000000000000, 1.000000000000000000, 0.0000000000000000000 ) ) ;
#208 = CARTESIAN_POINT ( 'NONE',  ( -3.200000000000000200, 3.500000000000000000, 0.0000000000000000000 ) ) ;
#209 = LINE ( 'NONE', #141, #200 ) ;
#210 = AXIS2_PLACEMENT_3D ( 'NONE', #223, #194, #346 ) ;
#211 = CIRCLE ( 'NONE', #38, 3.500000000000000000 ) ;
#212 = EDGE_LOOP ( 'NONE', ( #105, #201, #239, #295 ) ) ;
#213 = SURFACE_STYLE_USAGE ( .BOTH. , #71 ) ;
#214 = AXIS2_PLACEMENT_3D ( 'NONE', #136, #87, #31 ) ;
#215 = VECTOR ( 'NONE', #145, 1000.000000000000000 ) ;
#216 = FACE_OUTER_BOUND ( 'NONE', #73, .T. ) ;
#217 = CIRCLE ( 'NONE', #16, 3.500000000000000000 ) ;
#218 = ORIENTED_EDGE ( 'NONE', *, *, #365, .F. ) ;
#219 = EDGE_CURVE ( 'NONE', #25, #245, #114, .T. ) ;
#220 = CARTESIAN_POINT ( 'NONE',  ( 5.099999999999999600, 0.0000000000000000000, 2.000000000000000000 ) ) ;
#221 = CARTESIAN_POINT ( 'NONE',  ( 5.100000000000000500, -3.500000000000000000, 2.000000000000000000 ) ) ;
#222 = VECTOR ( 'NONE', #140, 1000.000000000000000 ) ;
#223 = CARTESIAN_POINT ( 'NONE',  ( 12.40000000000000200, -9.000000000000001800, 0.0000000000000000000 ) ) ;
#224 = DIRECTION ( 'NONE',  ( 0.0000000000000000000, -0.0000000000000000000, -1.000000000000000000 ) ) ;
#225 = CARTESIAN_POINT ( 'NONE',  ( 5.100000000000000500, 3.499999999999999600, 2.000000000000000000 ) ) ;
#226 = VECTOR ( 'NONE', #256, 1000.000000000000000 ) ;
#227 = CARTESIAN_POINT ( 'NONE',  ( -3.200000000000000200, 0.0000000000000000000, 0.0000000000000000000 ) ) ;
#228 = VERTEX_POINT ( 'NONE', #251 ) ;
#229 = VERTEX_POINT ( 'NONE', #85 ) ;
#230 = SURFACE_SIDE_STYLE ('',( #76 ) ) ;
#231 = ADVANCED_FACE ( 'NONE', ( #195 ), #312, .F. ) ;
#232 = CARTESIAN_POINT ( 'NONE',  ( -3.200000000000000200, -3.500000000000000000, 2.000000000000000000 ) ) ;
#233 =( LENGTH_UNIT ( ) NAMED_UNIT ( * ) SI_UNIT ( .MILLI., .METRE. ) );
#234 = EDGE_CURVE ( 'NONE', #344, #25, #314, .T. ) ;
#235 = LINE ( 'NONE', #204, #356 ) ;
#236 = PLANE ( 'NONE',  #151 ) ;
#237 = DIRECTION ( 'NONE',  ( 0.0000000000000000000, 0.0000000000000000000, 1.000000000000000000 ) ) ;
#238 = LINE ( 'NONE', #347, #222 ) ;
#239 = ORIENTED_EDGE ( 'NONE', *, *, #234, .T. ) ;
#240 = ADVANCED_FACE ( 'NONE', ( #100 ), #20, .F. ) ;
#241 = PRESENTATION_STYLE_ASSIGNMENT (( #171 ) ) ;
#242 = PRODUCT_DEFINITION_SHAPE ( 'NONE', 'NONE',  #199 ) ;
#243 = DIRECTION ( 'NONE',  ( -1.000000000000000000, 0.0000000000000000000, 0.0000000000000000000 ) ) ;
#244 = FACE_OUTER_BOUND ( 'NONE', #212, .T. ) ;
#245 = VERTEX_POINT ( 'NONE', #323 ) ;
#246 = AXIS2_PLACEMENT_3D ( 'NONE', #33, #202, #353 ) ;
#247 = DIRECTION ( 'NONE',  ( -0.0000000000000000000, -0.0000000000000000000, 1.000000000000000000 ) ) ;
#248 = ORIENTED_EDGE ( 'NONE', *, *, #7, .F. ) ;
#249 = CARTESIAN_POINT ( 'NONE',  ( -3.200000000000000200, 0.0000000000000000000, 2.000000000000000000 ) ) ;
#250 = STYLED_ITEM ( 'NONE', ( #241 ), #368 ) ;
#251 = CARTESIAN_POINT ( 'NONE',  ( -3.199999999999999700, -3.499999999999999600, 2.000000000000000000 ) ) ;
#252 = CARTESIAN_POINT ( 'NONE',  ( 5.100000000000000500, -3.499999999999999600, 2.000000000000000000 ) ) ;
#253 = LINE ( 'NONE', #221, #131 ) ;
#254 = ORIENTED_EDGE ( 'NONE', *, *, #279, .T. ) ;
#255 = CARTESIAN_POINT ( 'NONE',  ( 12.40000000000000200, -9.000000000000001800, 2.000000000000000000 ) ) ;
#256 = DIRECTION ( 'NONE',  ( -1.000000000000000000, 0.0000000000000000000, -0.0000000000000000000 ) ) ;
#257 = EDGE_CURVE ( 'NONE', #345, #228, #235, .T. ) ;
#258 = COLOUR_RGB ( '',0.7529411764705882200, 0.7529411764705882200, 0.7529411764705882200 ) ;
#259 = DIRECTION ( 'NONE',  ( 0.0000000000000000000, -0.0000000000000000000, 1.000000000000000000 ) ) ;
#260 = VERTEX_POINT ( 'NONE', #61 ) ;
#261 = CARTESIAN_POINT ( 'NONE',  ( 12.40000000000000200, -9.000000000000001800, 2.000000000000000000 ) ) ;
#262 = VECTOR ( 'NONE', #177, 1000.000000000000000 ) ;
#263 = VECTOR ( 'NONE', #159, 1000.000000000000000 ) ;
#264 = DIRECTION ( 'NONE',  ( 0.0000000000000000000, 1.000000000000000000, 0.0000000000000000000 ) ) ;
#265 = ORIENTED_EDGE ( 'NONE', *, *, #219, .T. ) ;
#266 = FILL_AREA_STYLE ('',( #270 ) ) ;
#267 = PRESENTATION_LAYER_ASSIGNMENT (  '', '', ( #370 ) ) ;
#268 = ADVANCED_FACE ( 'NONE', ( #21 ), #97, .F. ) ;
#269 = VERTEX_POINT ( 'NONE', #176 ) ;
#270 = FILL_AREA_STYLE_COLOUR ( '', #258 ) ;
#271 = PRODUCT ( '7228120_CNAJF00', '7228120_CNAJF00', '', ( #126 ) ) ;
#272 = AXIS2_PLACEMENT_3D ( 'NONE', #308, #377, #55 ) ;
#273 = VECTOR ( 'NONE', #264, 1000.000000000000000 ) ;
#274 = ORIENTED_EDGE ( 'NONE', *, *, #376, .F. ) ;
#275 = DIRECTION ( 'NONE',  ( -0.0000000000000000000, -0.0000000000000000000, 1.000000000000000000 ) ) ;
#276 = DIRECTION ( 'NONE',  ( -0.0000000000000000000, -0.0000000000000000000, 1.000000000000000000 ) ) ;
#277 = LINE ( 'NONE', #190, #306 ) ;
#278 = EDGE_LOOP ( 'NONE', ( #297, #351, #43, #175 ) ) ;
#279 = EDGE_CURVE ( 'NONE', #143, #15, #362, .T. ) ;
#280 = DIRECTION ( 'NONE',  ( 0.0000000000000000000, 0.0000000000000000000, -1.000000000000000000 ) ) ;
#281 = LINE ( 'NONE', #261, #103 ) ;
#282 = LINE ( 'NONE', #339, #359 ) ;
#283 = CARTESIAN_POINT ( 'NONE',  ( 5.099999999999999600, 0.0000000000000000000, 0.0000000000000000000 ) ) ;
#284 =( GEOMETRIC_REPRESENTATION_CONTEXT ( 3 ) GLOBAL_UNCERTAINTY_ASSIGNED_CONTEXT ( ( #205 ) ) GLOBAL_UNIT_ASSIGNED_CONTEXT ( ( #296, #41, #358 ) ) REPRESENTATION_CONTEXT ( 'NONE', 'WORKASPACE' ) );
#285 = ORIENTED_EDGE ( 'NONE', *, *, #75, .T. ) ;
#286 = ORIENTED_EDGE ( 'NONE', *, *, #52, .T. ) ;
#287 = PLANE ( 'NONE',  #246 ) ;
#288 =( NAMED_UNIT ( * ) PLANE_ANGLE_UNIT ( ) SI_UNIT ( $, .RADIAN. ) );
#289 = PRESENTATION_LAYER_ASSIGNMENT (  '', '', ( #250 ) ) ;
#290 = CYLINDRICAL_SURFACE ( 'NONE', #214, 3.500000000000000000 ) ;
#291 = DIRECTION ( 'NONE',  ( 1.000000000000000000, 0.0000000000000000000, 0.0000000000000000000 ) ) ;
#292 = ADVANCED_FACE ( 'NONE', ( #332 ), #9, .T. ) ;
#293 =( LENGTH_UNIT ( ) NAMED_UNIT ( * ) SI_UNIT ( .MILLI., .METRE. ) );
#294 = APPLICATION_PROTOCOL_DEFINITION ( 'draft international standard', 'automotive_design', 1998, #179 ) ;
#295 = ORIENTED_EDGE ( 'NONE', *, *, #324, .F. ) ;
#296 =( LENGTH_UNIT ( ) NAMED_UNIT ( * ) SI_UNIT ( .MILLI., .METRE. ) );
#297 = ORIENTED_EDGE ( 'NONE', *, *, #234, .F. ) ;
#298 = EDGE_CURVE ( 'NONE', #260, #360, #281, .T. ) ;
#299 = UNCERTAINTY_MEASURE_WITH_UNIT (LENGTH_MEASURE( 1.000000000000000100E-005 ), #293, 'distance_accuracy_value', 'NONE');
#300 = EDGE_CURVE ( 'NONE', #15, #128, #160, .T. ) ;
#301 = PRESENTATION_STYLE_ASSIGNMENT (( #213 ) ) ;
#302 = VECTOR ( 'NONE', #51, 1000.000000000000000 ) ;
#303 = DIRECTION ( 'NONE',  ( -0.0000000000000000000, -0.0000000000000000000, 1.000000000000000000 ) ) ;
#304 = VECTOR ( 'NONE', #96, 1000.000000000000000 ) ;
#305 = EDGE_CURVE ( 'NONE', #330, #143, #45, .T. ) ;
#306 = VECTOR ( 'NONE', #336, 1000.000000000000000 ) ;
#307 = CARTESIAN_POINT ( 'NONE',  ( 5.100000000000000500, 3.500000000000000000, 0.0000000000000000000 ) ) ;
#308 = CARTESIAN_POINT ( 'NONE',  ( 5.099999999999999600, 0.0000000000000000000, 2.000000000000000000 ) ) ;
#309 =( GEOMETRIC_REPRESENTATION_CONTEXT ( 3 ) GLOBAL_UNCERTAINTY_ASSIGNED_CONTEXT ( ( #299 ) ) GLOBAL_UNIT_ASSIGNED_CONTEXT ( ( #293, #98, #181 ) ) REPRESENTATION_CONTEXT ( 'NONE', 'WORKASPACE' ) );
#310 = ORIENTED_EDGE ( 'NONE', *, *, #257, .T. ) ;
#311 = CARTESIAN_POINT ( 'NONE',  ( -6.700000000000000200, 0.0000000000000000000, 0.0000000000000000000 ) ) ;
#312 = PLANE ( 'NONE',  #361 ) ;
#313 = FACE_OUTER_BOUND ( 'NONE', #152, .T. ) ;
#314 = LINE ( 'NONE', #86, #149 ) ;
#315 = DIRECTION ( 'NONE',  ( -0.0000000000000000000, -0.0000000000000000000, 1.000000000000000000 ) ) ;
#316 = ORIENTED_EDGE ( 'NONE', *, *, #23, .F. ) ;
#317 = DIRECTION ( 'NONE',  ( -0.0000000000000000000, 0.0000000000000000000, -1.000000000000000000 ) ) ;
#318 = CARTESIAN_POINT ( 'NONE',  ( 12.40000000000000200, -9.000000000000001800, 0.0000000000000000000 ) ) ;
#319 = EDGE_CURVE ( 'NONE', #128, #330, #321, .T. ) ;
#320 = DIRECTION ( 'NONE',  ( 0.0000000000000000000, 0.0000000000000000000, 1.000000000000000000 ) ) ;
#321 = LINE ( 'NONE', #150, #371 ) ;
#322 = ORIENTED_EDGE ( 'NONE', *, *, #74, .T. ) ;
#323 = CARTESIAN_POINT ( 'NONE',  ( -12.40000000000000200, 9.000000000000001800, 0.0000000000000000000 ) ) ;
#324 = EDGE_CURVE ( 'NONE', #360, #25, #166, .T. ) ;
#325 = CARTESIAN_POINT ( 'NONE',  ( 5.100000000000000500, 3.500000000000000000, 2.000000000000000000 ) ) ;
#326 = ORIENTED_EDGE ( 'NONE', *, *, #300, .F. ) ;
#327 = ORIENTED_EDGE ( 'NONE', *, *, #19, .F. ) ;
#328 = AXIS2_PLACEMENT_3D ( 'NONE', #80, #111, #191 ) ;
#329 = ORIENTED_EDGE ( 'NONE', *, *, #36, .F. ) ;
#330 = VERTEX_POINT ( 'NONE', #198 ) ;
#331 = PRODUCT_DEFINITION_FORMATION_WITH_SPECIFIED_SOURCE ( 'ANY', '', #271, .NOT_KNOWN. ) ;
#332 = FACE_OUTER_BOUND ( 'NONE', #83, .T. ) ;
#333 = DIRECTION ( 'NONE',  ( -0.0000000000000000000, -0.0000000000000000000, 1.000000000000000000 ) ) ;
#334 = CIRCLE ( 'NONE', #56, 3.500000000000000000 ) ;
#335 = DIRECTION ( 'NONE',  ( -1.000000000000000000, 8.881784197001252300E-016, 0.0000000000000000000 ) ) ;
#336 = DIRECTION ( 'NONE',  ( 0.0000000000000000000, 0.0000000000000000000, -1.000000000000000000 ) ) ;
#337 = CARTESIAN_POINT ( 'NONE',  ( -3.200000000000000200, 0.0000000000000000000, 2.000000000000000000 ) ) ;
#338 = VERTEX_POINT ( 'NONE', #355 ) ;
#339 = CARTESIAN_POINT ( 'NONE',  ( -12.40000000000000200, 9.000000000000001800, 2.000000000000000000 ) ) ;
#340 = EDGE_LOOP ( 'NONE', ( #322, #286, #79, #173 ) ) ;
#341 = CARTESIAN_POINT ( 'NONE',  ( 12.40000000000000200, -9.000000000000001800, 2.000000000000000000 ) ) ;
#342 = CARTESIAN_POINT ( 'NONE',  ( -12.40000000000000200, 9.000000000000001800, 0.0000000000000000000 ) ) ;
#343 = VECTOR ( 'NONE', #119, 1000.000000000000000 ) ;
#344 = VERTEX_POINT ( 'NONE', #91 ) ;
#345 = VERTEX_POINT ( 'NONE', #63 ) ;
#346 = DIRECTION ( 'NONE',  ( -1.000000000000000000, 0.0000000000000000000, -0.0000000000000000000 ) ) ;
#347 = CARTESIAN_POINT ( 'NONE',  ( 12.40000000000000200, -3.499999999999999600, 2.000000000000000000 ) ) ;
#348 = CARTESIAN_POINT ( 'NONE',  ( -3.200000000000000200, 3.500000000000000000, 2.000000000000000000 ) ) ;
#349 = VECTOR ( 'NONE', #29, 1000.000000000000000 ) ;
#350 = ADVANCED_FACE ( 'NONE', ( #313 ), #236, .T. ) ;
#351 = ORIENTED_EDGE ( 'NONE', *, *, #376, .T. ) ;
#352 = ADVANCED_FACE ( 'NONE', ( #184 ), #287, .F. ) ;
#353 = DIRECTION ( 'NONE',  ( 0.0000000000000000000, 0.0000000000000000000, -1.000000000000000000 ) ) ;
#354 = EDGE_CURVE ( 'NONE', #34, #345, #130, .T. ) ;
#355 = CARTESIAN_POINT ( 'NONE',  ( -6.700000000000000200, 0.0000000000000000000, 2.000000000000000000 ) ) ;
#356 = VECTOR ( 'NONE', #59, 1000.000000000000000 ) ;
#357 = LINE ( 'NONE', #50, #263 ) ;
#358 =( NAMED_UNIT ( * ) SI_UNIT ( $, .STERADIAN. ) SOLID_ANGLE_UNIT ( ) );
#359 = VECTOR ( 'NONE', #333, 1000.000000000000000 ) ;
#360 = VERTEX_POINT ( 'NONE', #318 ) ;
#361 = AXIS2_PLACEMENT_3D ( 'NONE', #375, #196, #224 ) ;
#362 = LINE ( 'NONE', #208, #304 ) ;
#363 = ORIENTED_EDGE ( 'NONE', *, *, #300, .T. ) ;
#364 = ORIENTED_EDGE ( 'NONE', *, *, #144, .F. ) ;
#365 = EDGE_CURVE ( 'NONE', #269, #360, #147, .T. ) ;
#366 = ORIENTED_EDGE ( 'NONE', *, *, #81, .T. ) ;
#367 = ORIENTED_EDGE ( 'NONE', *, *, #52, .F. ) ;
#368 = MANIFOLD_SOLID_BREP ( 'Importiert1', #138 ) ;
#369 = DIRECTION ( 'NONE',  ( -1.000000000000000000, 0.0000000000000000000, 0.0000000000000000000 ) ) ;
#370 = STYLED_ITEM ( 'NONE', ( #301 ), #26 ) ;
#371 = VECTOR ( 'NONE', #94, 1000.000000000000000 ) ;
#372 = LINE ( 'NONE', #341, #226 ) ;
#373 = DIRECTION ( 'NONE',  ( -1.000000000000000000, 0.0000000000000000000, 0.0000000000000000000 ) ) ;
#374 = EDGE_LOOP ( 'NONE', ( #30, #107, #326, #5 ) ) ;
#375 = CARTESIAN_POINT ( 'NONE',  ( 12.40000000000000200, 9.000000000000001800, 2.000000000000000000 ) ) ;
#376 = EDGE_CURVE ( 'NONE', #344, #229, #93, .T. ) ;
#377 = DIRECTION ( 'NONE',  ( 0.0000000000000000000, 0.0000000000000000000, -1.000000000000000000 ) ) ;
ENDSEC;
END-ISO-10303-21;
