ISO-10303-21;
HEADER;
FILE_DESCRIPTION (( 'STEP AP214' ),
    '1' );
FILE_NAME ('7250717',
    '2019-02-01T14:21:11',
    ( '' ),
    ('JUGARD+KÜNSTNER GmbH'),
    'SwSTEP 2.0',
    'SolidWorks 2017',
    '' );
FILE_SCHEMA (( 'AUTOMOTIVE_DESIGN' ));
ENDSEC;

DATA;
#1 = AXIS2_PLACEMENT_3D ( 'NONE', #147, #165, #61 ) ;
#2 = ORIENTED_EDGE ( 'NONE', *, *, #110, .T. ) ;
#3 = DIRECTION ( 'NONE',  ( 0.0000000000000000000, 0.0000000000000000000, -1.000000000000000000 ) ) ;
#4 = DIRECTION ( 'NONE',  ( 0.0000000000000000000, 0.0000000000000000000, -1.000000000000000000 ) ) ;
#5 =( LENGTH_UNIT ( ) NAMED_UNIT ( * ) SI_UNIT ( .MILLI., .METRE. ) );
#6 = VERTEX_POINT ( 'NONE', #191 ) ;
#7 = DIRECTION ( 'NONE',  ( -1.000000000000000000, -0.0000000000000000000, -0.0000000000000000000 ) ) ;
#8 = DIRECTION ( 'NONE',  ( 1.000000000000000000, 0.0000000000000000000, 0.0000000000000000000 ) ) ;
#9 = UNCERTAINTY_MEASURE_WITH_UNIT (LENGTH_MEASURE( 1.000000000000000100E-005 ), #183, 'distance_accuracy_value', 'NONE');
#10 = DIRECTION ( 'NONE',  ( -1.000000000000000000, 0.0000000000000000000, 0.0000000000000000000 ) ) ;
#11 = CIRCLE ( 'NONE', #168, 8.500000000000000000 ) ;
#12 = EDGE_LOOP ( 'NONE', ( #190, #203 ) ) ;
#13 = CARTESIAN_POINT ( 'NONE',  ( 0.0000000000000000000, 0.0000000000000000000, 0.0000000000000000000 ) ) ;
#14 = PRODUCT_CONTEXT ( 'NONE', #135, 'mechanical' ) ;
#15 =( NAMED_UNIT ( * ) SI_UNIT ( $, .STERADIAN. ) SOLID_ANGLE_UNIT ( ) );
#16 = PRESENTATION_STYLE_ASSIGNMENT (( #129 ) ) ;
#17 = ORIENTED_EDGE ( 'NONE', *, *, #23, .F. ) ;
#18 = APPLICATION_CONTEXT ( 'automotive_design' ) ;
#19 =( NAMED_UNIT ( * ) SI_UNIT ( $, .STERADIAN. ) SOLID_ANGLE_UNIT ( ) );
#20 = LINE ( 'NONE', #198, #150 ) ;
#21 = ORIENTED_EDGE ( 'NONE', *, *, #107, .F. ) ;
#22 = DIRECTION ( 'NONE',  ( -1.000000000000000000, -0.0000000000000000000, -0.0000000000000000000 ) ) ;
#23 = EDGE_CURVE ( 'NONE', #68, #161, #144, .T. ) ;
#24 = UNCERTAINTY_MEASURE_WITH_UNIT (LENGTH_MEASURE( 1.000000000000000100E-005 ), #214, 'distance_accuracy_value', 'NONE');
#25 = DIRECTION ( 'NONE',  ( 1.000000000000000000, 0.0000000000000000000, 0.0000000000000000000 ) ) ;
#26 = DIRECTION ( 'NONE',  ( 0.0000000000000000000, 0.0000000000000000000, -1.000000000000000000 ) ) ;
#27 = SHAPE_DEFINITION_REPRESENTATION ( #91, #123 ) ;
#28 = FACE_BOUND ( 'NONE', #12, .T. ) ;
#29 = FILL_AREA_STYLE_COLOUR ( '', #128 ) ;
#30 = DIRECTION ( 'NONE',  ( 0.0000000000000000000, 0.0000000000000000000, -1.000000000000000000 ) ) ;
#31 = DIRECTION ( 'NONE',  ( -1.000000000000000000, -0.0000000000000000000, -0.0000000000000000000 ) ) ;
#32 = ORIENTED_EDGE ( 'NONE', *, *, #51, .F. ) ;
#33 = SURFACE_STYLE_USAGE ( .BOTH. , #102 ) ;
#34 = AXIS2_PLACEMENT_3D ( 'NONE', #93, #92, #3 ) ;
#35 = CIRCLE ( 'NONE', #76, 3.200000000000000200 ) ;
#36 = EDGE_LOOP ( 'NONE', ( #213, #106 ) ) ;
#37 = ORIENTED_EDGE ( 'NONE', *, *, #69, .F. ) ;
#38 = CARTESIAN_POINT ( 'NONE',  ( 2.999999999999849900, 0.0000000000000000000, 0.0000000000000000000 ) ) ;
#39 = VERTEX_POINT ( 'NONE', #159 ) ;
#40 = DIRECTION ( 'NONE',  ( 1.000000000000000000, 0.0000000000000000000, 0.0000000000000000000 ) ) ;
#41 = DIRECTION ( 'NONE',  ( 0.0000000000000000000, 0.0000000000000000000, -1.000000000000000000 ) ) ;
#42 = CARTESIAN_POINT ( 'NONE',  ( 2.999999999999849900, 1.040949779275250100E-015, 8.500000000000000000 ) ) ;
#43 = AXIS2_PLACEMENT_3D ( 'NONE', #75, #99, #79 ) ;
#44 = CARTESIAN_POINT ( 'NONE',  ( 0.0000000000000000000, 0.0000000000000000000, 0.0000000000000000000 ) ) ;
#45 = ORIENTED_EDGE ( 'NONE', *, *, #196, .F. ) ;
#46 = DIRECTION ( 'NONE',  ( 1.000000000000000000, 0.0000000000000000000, 0.0000000000000000000 ) ) ;
#47 = EDGE_CURVE ( 'NONE', #132, #6, #206, .T. ) ;
#48 = APPLICATION_PROTOCOL_DEFINITION ( 'draft international standard', 'automotive_design', 1998, #18 ) ;
#49 = ORIENTED_EDGE ( 'NONE', *, *, #66, .T. ) ;
#50 = UNCERTAINTY_MEASURE_WITH_UNIT (LENGTH_MEASURE( 1.000000000000000100E-005 ), #5, 'distance_accuracy_value', 'NONE');
#51 = EDGE_CURVE ( 'NONE', #85, #39, #205, .T. ) ;
#52 = VECTOR ( 'NONE', #143, 1000.000000000000000 ) ;
#53 = CIRCLE ( 'NONE', #120, 8.500000000000000000 ) ;
#54 = ORIENTED_EDGE ( 'NONE', *, *, #107, .T. ) ;
#55 = AXIS2_PLACEMENT_3D ( 'NONE', #13, #117, #62 ) ;
#56 = CARTESIAN_POINT ( 'NONE',  ( 2.999999999999849900, 0.0000000000000000000, 0.0000000000000000000 ) ) ;
#57 = EDGE_CURVE ( 'NONE', #132, #85, #67, .T. ) ;
#58 = PLANE ( 'NONE',  #152 ) ;
#59 = CARTESIAN_POINT ( 'NONE',  ( 0.0000000000000000000, 1.040949779275250100E-015, 8.500000000000000000 ) ) ;
#60 = DIRECTION ( 'NONE',  ( -1.000000000000000000, -0.0000000000000000000, -0.0000000000000000000 ) ) ;
#61 = DIRECTION ( 'NONE',  ( 0.0000000000000000000, 0.0000000000000000000, 1.000000000000000000 ) ) ;
#62 = DIRECTION ( 'NONE',  ( 0.0000000000000000000, 0.0000000000000000000, -1.000000000000000000 ) ) ;
#63 = AXIS2_PLACEMENT_3D ( 'NONE', #38, #22, #4 ) ;
#64 = FACE_OUTER_BOUND ( 'NONE', #83, .T. ) ;
#65 = MANIFOLD_SOLID_BREP ( 'Importiert1', #138 ) ;
#66 = EDGE_CURVE ( 'NONE', #181, #111, #53, .T. ) ;
#67 = LINE ( 'NONE', #141, #52 ) ;
#68 = VERTEX_POINT ( 'NONE', #72 ) ;
#69 = EDGE_CURVE ( 'NONE', #181, #161, #88, .T. ) ;
#70 = FACE_OUTER_BOUND ( 'NONE', #172, .T. ) ;
#71 = STYLED_ITEM ( 'NONE', ( #16 ), #65 ) ;
#72 = CARTESIAN_POINT ( 'NONE',  ( 2.999999999999849900, 0.0000000000000000000, -8.500000000000000000 ) ) ;
#73 = CARTESIAN_POINT ( 'NONE',  ( 2.999999999999849900, 0.0000000000000000000, 0.0000000000000000000 ) ) ;
#74 = ORIENTED_EDGE ( 'NONE', *, *, #57, .T. ) ;
#75 = CARTESIAN_POINT ( 'NONE',  ( 0.0000000000000000000, 0.0000000000000000000, 0.0000000000000000000 ) ) ;
#76 = AXIS2_PLACEMENT_3D ( 'NONE', #73, #194, #26 ) ;
#77 = CARTESIAN_POINT ( 'NONE',  ( 0.0000000000000000000, 0.0000000000000000000, 0.0000000000000000000 ) ) ;
#78 = SURFACE_STYLE_FILL_AREA ( #94 ) ;
#79 = DIRECTION ( 'NONE',  ( 0.0000000000000000000, 0.0000000000000000000, -1.000000000000000000 ) ) ;
#80 = ORIENTED_EDGE ( 'NONE', *, *, #57, .F. ) ;
#81 = PRODUCT_DEFINITION_FORMATION_WITH_SPECIFIED_SOURCE ( 'ANY', '', #126, .NOT_KNOWN. ) ;
#82 = ADVANCED_FACE ( 'NONE', ( #84 ), #142, .F. ) ;
#83 = EDGE_LOOP ( 'NONE', ( #156, #125, #54, #139 ) ) ;
#84 = FACE_OUTER_BOUND ( 'NONE', #119, .T. ) ;
#85 = VERTEX_POINT ( 'NONE', #98 ) ;
#86 = AXIS2_PLACEMENT_3D ( 'NONE', #44, #208, #177 ) ;
#87 = ORIENTED_EDGE ( 'NONE', *, *, #23, .T. ) ;
#88 = LINE ( 'NONE', #112, #204 ) ;
#89 =( GEOMETRIC_REPRESENTATION_CONTEXT ( 3 ) GLOBAL_UNCERTAINTY_ASSIGNED_CONTEXT ( ( #24 ) ) GLOBAL_UNIT_ASSIGNED_CONTEXT ( ( #214, #137, #15 ) ) REPRESENTATION_CONTEXT ( 'NONE', 'WORKASPACE' ) );
#90 = EDGE_LOOP ( 'NONE', ( #17, #21 ) ) ;
#91 = PRODUCT_DEFINITION_SHAPE ( 'NONE', 'NONE',  #97 ) ;
#92 = DIRECTION ( 'NONE',  ( 1.000000000000000000, 0.0000000000000000000, 0.0000000000000000000 ) ) ;
#93 = CARTESIAN_POINT ( 'NONE',  ( 0.0000000000000000000, 0.0000000000000000000, 0.0000000000000000000 ) ) ;
#94 = FILL_AREA_STYLE ('',( #193 ) ) ;
#95 = EDGE_LOOP ( 'NONE', ( #167, #49 ) ) ;
#96 =( NAMED_UNIT ( * ) PLANE_ANGLE_UNIT ( ) SI_UNIT ( $, .RADIAN. ) );
#97 = PRODUCT_DEFINITION ( 'UNKNOWN', '', #81, #153 ) ;
#98 = CARTESIAN_POINT ( 'NONE',  ( 2.999999999999849900, 0.0000000000000000000, -3.200000000000000200 ) ) ;
#99 = DIRECTION ( 'NONE',  ( 1.000000000000000000, 0.0000000000000000000, 0.0000000000000000000 ) ) ;
#100 = ADVANCED_FACE ( 'NONE', ( #64 ), #155, .T. ) ;
#101 = ORIENTED_EDGE ( 'NONE', *, *, #195, .F. ) ;
#102 = SURFACE_SIDE_STYLE ('',( #154 ) ) ;
#103 = LINE ( 'NONE', #197, #160 ) ;
#104 = MECHANICAL_DESIGN_GEOMETRIC_PRESENTATION_REPRESENTATION (  '', ( #189 ), #157 ) ;
#105 = CYLINDRICAL_SURFACE ( 'NONE', #164, 3.200000000000000200 ) ;
#106 = ORIENTED_EDGE ( 'NONE', *, *, #200, .T. ) ;
#107 = EDGE_CURVE ( 'NONE', #161, #68, #11, .T. ) ;
#108 = DIRECTION ( 'NONE',  ( 0.0000000000000000000, 0.0000000000000000000, -1.000000000000000000 ) ) ;
#109 = CIRCLE ( 'NONE', #86, 3.200000000000000200 ) ;
#110 = EDGE_CURVE ( 'NONE', #111, #68, #20, .T. ) ;
#111 = VERTEX_POINT ( 'NONE', #134 ) ;
#112 = CARTESIAN_POINT ( 'NONE',  ( 0.0000000000000000000, 1.040949779275250100E-015, 8.500000000000000000 ) ) ;
#113 = DIRECTION ( 'NONE',  ( 0.0000000000000000000, 0.0000000000000000000, -1.000000000000000000 ) ) ;
#114 = FACE_OUTER_BOUND ( 'NONE', #95, .T. ) ;
#115 = CARTESIAN_POINT ( 'NONE',  ( 0.0000000000000000000, 0.0000000000000000000, 0.0000000000000000000 ) ) ;
#116 = DIRECTION ( 'NONE',  ( 0.0000000000000000000, 0.0000000000000000000, -1.000000000000000000 ) ) ;
#117 = DIRECTION ( 'NONE',  ( 1.000000000000000000, 0.0000000000000000000, 0.0000000000000000000 ) ) ;
#118 = PRESENTATION_STYLE_ASSIGNMENT (( #33 ) ) ;
#119 = EDGE_LOOP ( 'NONE', ( #45, #184, #74, #170 ) ) ;
#120 = AXIS2_PLACEMENT_3D ( 'NONE', #173, #7, #113 ) ;
#121 = APPLICATION_PROTOCOL_DEFINITION ( 'draft international standard', 'automotive_design', 1998, #135 ) ;
#122 = FILL_AREA_STYLE ('',( #29 ) ) ;
#123 = ADVANCED_BREP_SHAPE_REPRESENTATION ( '7250717_CNAJF00', ( #65, #175 ), #89 ) ;
#124 = PRESENTATION_LAYER_ASSIGNMENT (  '', '', ( #71 ) ) ;
#125 = ORIENTED_EDGE ( 'NONE', *, *, #69, .T. ) ;
#126 = PRODUCT ( '7250717_CNAJF00', '7250717_CNAJF00', '', ( #14 ) ) ;
#127 = AXIS2_PLACEMENT_3D ( 'NONE', #56, #192, #108 ) ;
#128 = COLOUR_RGB ( '',0.7529411764705882200, 0.7529411764705882200, 0.7529411764705882200 ) ;
#129 = SURFACE_STYLE_USAGE ( .BOTH. , #207 ) ;
#130 = DIRECTION ( 'NONE',  ( 1.000000000000000000, 0.0000000000000000000, 0.0000000000000000000 ) ) ;
#131 = AXIS2_PLACEMENT_3D ( 'NONE', #145, #8, #41 ) ;
#132 = VERTEX_POINT ( 'NONE', #166 ) ;
#133 = DIRECTION ( 'NONE',  ( 0.0000000000000000000, 0.0000000000000000000, 1.000000000000000000 ) ) ;
#134 = CARTESIAN_POINT ( 'NONE',  ( 0.0000000000000000000, 0.0000000000000000000, -8.500000000000000000 ) ) ;
#135 = APPLICATION_CONTEXT ( 'automotive_design' ) ;
#136 = PRESENTATION_LAYER_ASSIGNMENT (  '', '', ( #189 ) ) ;
#137 =( NAMED_UNIT ( * ) PLANE_ANGLE_UNIT ( ) SI_UNIT ( $, .RADIAN. ) );
#138 = CLOSED_SHELL ( 'NONE', ( #169, #100, #211, #82, #151, #185 ) ) ;
#139 = ORIENTED_EDGE ( 'NONE', *, *, #110, .F. ) ;
#140 =( GEOMETRIC_REPRESENTATION_CONTEXT ( 3 ) GLOBAL_UNCERTAINTY_ASSIGNED_CONTEXT ( ( #50 ) ) GLOBAL_UNIT_ASSIGNED_CONTEXT ( ( #5, #96, #162 ) ) REPRESENTATION_CONTEXT ( 'NONE', 'WORKASPACE' ) );
#141 = CARTESIAN_POINT ( 'NONE',  ( 0.0000000000000000000, 0.0000000000000000000, -3.200000000000000200 ) ) ;
#142 = CYLINDRICAL_SURFACE ( 'NONE', #43, 3.200000000000000200 ) ;
#143 = DIRECTION ( 'NONE',  ( 1.000000000000000000, 0.0000000000000000000, 0.0000000000000000000 ) ) ;
#144 = CIRCLE ( 'NONE', #127, 8.500000000000000000 ) ;
#145 = CARTESIAN_POINT ( 'NONE',  ( 0.0000000000000000000, 0.0000000000000000000, 0.0000000000000000000 ) ) ;
#146 = CARTESIAN_POINT ( 'NONE',  ( 0.0000000000000000000, 0.0000000000000000000, 0.0000000000000000000 ) ) ;
#147 = CARTESIAN_POINT ( 'NONE',  ( 2.999999999999849900, 0.0000000000000000000, 0.0000000000000000000 ) ) ;
#148 = MECHANICAL_DESIGN_GEOMETRIC_PRESENTATION_REPRESENTATION (  '', ( #71 ), #140 ) ;
#149 = DIRECTION ( 'NONE',  ( 1.000000000000000000, 0.0000000000000000000, 0.0000000000000000000 ) ) ;
#150 = VECTOR ( 'NONE', #130, 1000.000000000000000 ) ;
#151 = ADVANCED_FACE ( 'NONE', ( #180 ), #202, .T. ) ;
#152 = AXIS2_PLACEMENT_3D ( 'NONE', #115, #10, #133 ) ;
#153 = PRODUCT_DEFINITION_CONTEXT ( 'detailed design', #18, 'design' ) ;
#154 = SURFACE_STYLE_FILL_AREA ( #122 ) ;
#155 = CYLINDRICAL_SURFACE ( 'NONE', #55, 8.500000000000000000 ) ;
#156 = ORIENTED_EDGE ( 'NONE', *, *, #66, .F. ) ;
#157 =( GEOMETRIC_REPRESENTATION_CONTEXT ( 3 ) GLOBAL_UNCERTAINTY_ASSIGNED_CONTEXT ( ( #9 ) ) GLOBAL_UNIT_ASSIGNED_CONTEXT ( ( #183, #201, #19 ) ) REPRESENTATION_CONTEXT ( 'NONE', 'WORKASPACE' ) );
#158 = FACE_OUTER_BOUND ( 'NONE', #90, .T. ) ;
#159 = CARTESIAN_POINT ( 'NONE',  ( 2.999999999999849900, 3.918869757271530500E-016, 3.200000000000000200 ) ) ;
#160 = VECTOR ( 'NONE', #149, 1000.000000000000000 ) ;
#161 = VERTEX_POINT ( 'NONE', #42 ) ;
#162 =( NAMED_UNIT ( * ) SI_UNIT ( $, .STERADIAN. ) SOLID_ANGLE_UNIT ( ) );
#163 = DIRECTION ( 'NONE',  ( 0.0000000000000000000, 0.0000000000000000000, -1.000000000000000000 ) ) ;
#164 = AXIS2_PLACEMENT_3D ( 'NONE', #146, #40, #116 ) ;
#165 = DIRECTION ( 'NONE',  ( -1.000000000000000000, 0.0000000000000000000, 0.0000000000000000000 ) ) ;
#166 = CARTESIAN_POINT ( 'NONE',  ( 0.0000000000000000000, 0.0000000000000000000, -3.200000000000000200 ) ) ;
#167 = ORIENTED_EDGE ( 'NONE', *, *, #195, .T. ) ;
#168 = AXIS2_PLACEMENT_3D ( 'NONE', #178, #31, #30 ) ;
#169 = ADVANCED_FACE ( 'NONE', ( #70 ), #105, .F. ) ;
#170 = ORIENTED_EDGE ( 'NONE', *, *, #200, .F. ) ;
#171 = COLOUR_RGB ( '',0.8745098039215686300, 0.9137254901960784000, 1.000000000000000000 ) ;
#172 = EDGE_LOOP ( 'NONE', ( #176, #187, #32, #80 ) ) ;
#173 = CARTESIAN_POINT ( 'NONE',  ( 0.0000000000000000000, 0.0000000000000000000, 0.0000000000000000000 ) ) ;
#174 = CIRCLE ( 'NONE', #182, 8.500000000000000000 ) ;
#175 = AXIS2_PLACEMENT_3D ( 'NONE', #209, #212, #46 ) ;
#176 = ORIENTED_EDGE ( 'NONE', *, *, #186, .F. ) ;
#177 = DIRECTION ( 'NONE',  ( 0.0000000000000000000, 0.0000000000000000000, -1.000000000000000000 ) ) ;
#178 = CARTESIAN_POINT ( 'NONE',  ( 2.999999999999849900, 0.0000000000000000000, 0.0000000000000000000 ) ) ;
#179 = PLANE ( 'NONE',  #1 ) ;
#180 = FACE_OUTER_BOUND ( 'NONE', #199, .T. ) ;
#181 = VERTEX_POINT ( 'NONE', #59 ) ;
#182 = AXIS2_PLACEMENT_3D ( 'NONE', #77, #60, #163 ) ;
#183 =( LENGTH_UNIT ( ) NAMED_UNIT ( * ) SI_UNIT ( .MILLI., .METRE. ) );
#184 = ORIENTED_EDGE ( 'NONE', *, *, #47, .F. ) ;
#185 = ADVANCED_FACE ( 'NONE', ( #188, #158 ), #179, .F. ) ;
#186 = EDGE_CURVE ( 'NONE', #6, #132, #109, .T. ) ;
#187 = ORIENTED_EDGE ( 'NONE', *, *, #196, .T. ) ;
#188 = FACE_BOUND ( 'NONE', #36, .T. ) ;
#189 = STYLED_ITEM ( 'NONE', ( #118 ), #123 ) ;
#190 = ORIENTED_EDGE ( 'NONE', *, *, #47, .T. ) ;
#191 = CARTESIAN_POINT ( 'NONE',  ( 0.0000000000000000000, 3.918869757271530500E-016, 3.200000000000000200 ) ) ;
#192 = DIRECTION ( 'NONE',  ( -1.000000000000000000, -0.0000000000000000000, -0.0000000000000000000 ) ) ;
#193 = FILL_AREA_STYLE_COLOUR ( '', #171 ) ;
#194 = DIRECTION ( 'NONE',  ( -1.000000000000000000, -0.0000000000000000000, -0.0000000000000000000 ) ) ;
#195 = EDGE_CURVE ( 'NONE', #111, #181, #174, .T. ) ;
#196 = EDGE_CURVE ( 'NONE', #6, #39, #103, .T. ) ;
#197 = CARTESIAN_POINT ( 'NONE',  ( 0.0000000000000000000, 3.918869757271530500E-016, 3.200000000000000200 ) ) ;
#198 = CARTESIAN_POINT ( 'NONE',  ( 0.0000000000000000000, 0.0000000000000000000, -8.500000000000000000 ) ) ;
#199 = EDGE_LOOP ( 'NONE', ( #37, #101, #2, #87 ) ) ;
#200 = EDGE_CURVE ( 'NONE', #39, #85, #35, .T. ) ;
#201 =( NAMED_UNIT ( * ) PLANE_ANGLE_UNIT ( ) SI_UNIT ( $, .RADIAN. ) );
#202 = CYLINDRICAL_SURFACE ( 'NONE', #131, 8.500000000000000000 ) ;
#203 = ORIENTED_EDGE ( 'NONE', *, *, #186, .T. ) ;
#204 = VECTOR ( 'NONE', #25, 1000.000000000000000 ) ;
#205 = CIRCLE ( 'NONE', #63, 3.200000000000000200 ) ;
#206 = CIRCLE ( 'NONE', #34, 3.200000000000000200 ) ;
#207 = SURFACE_SIDE_STYLE ('',( #78 ) ) ;
#208 = DIRECTION ( 'NONE',  ( 1.000000000000000000, 0.0000000000000000000, 0.0000000000000000000 ) ) ;
#209 = CARTESIAN_POINT ( 'NONE',  ( 0.0000000000000000000, 0.0000000000000000000, 0.0000000000000000000 ) ) ;
#210 = PRODUCT_RELATED_PRODUCT_CATEGORY ( 'part', '', ( #126 ) ) ;
#211 = ADVANCED_FACE ( 'NONE', ( #28, #114 ), #58, .T. ) ;
#212 = DIRECTION ( 'NONE',  ( 0.0000000000000000000, 0.0000000000000000000, 1.000000000000000000 ) ) ;
#213 = ORIENTED_EDGE ( 'NONE', *, *, #51, .T. ) ;
#214 =( LENGTH_UNIT ( ) NAMED_UNIT ( * ) SI_UNIT ( .MILLI., .METRE. ) );
ENDSEC;
END-ISO-10303-21;
