ISO-10303-21;
HEADER;
FILE_DESCRIPTION (( 'STEP AP214' ),
    '1' );
FILE_NAME ('7250738',
    '2019-02-01T14:21:17',
    ( '' ),
    ('JUGARD+KÜNSTNER GmbH'),
    'SwSTEP 2.0',
    'SolidWorks 2017',
    '' );
FILE_SCHEMA (( 'AUTOMOTIVE_DESIGN' ));
ENDSEC;

DATA;
#1 =( LENGTH_UNIT ( ) NAMED_UNIT ( * ) SI_UNIT ( .MILLI., .METRE. ) );
#2 = COLOUR_RGB ( '',1.000000000000000000, 1.000000000000000000, 0.5999999999999999800 ) ;
#3 = DIRECTION ( 'NONE',  ( 0.0000000000000000000, -1.000000000000000000, 6.123233995736769700E-017 ) ) ;
#4 = VERTEX_POINT ( 'NONE', #338 ) ;
#5 = CARTESIAN_POINT ( 'NONE',  ( 5.021051876504147400E-016, -4.099999999999999600, 2.510525938252075200E-016 ) ) ;
#6 = CARTESIAN_POINT ( 'NONE',  ( 0.0000000000000000000, 8.000000000000000000, 1.599999999999999600 ) ) ;
#7 = VERTEX_POINT ( 'NONE', #308 ) ;
#8 = EDGE_CURVE ( 'NONE', #7, #4, #28, .T. ) ;
#9 = DIRECTION ( 'NONE',  ( 0.0000000000000000000, -5.288791085302886800E-017, -1.000000000000000000 ) ) ;
#10 = DIRECTION ( 'NONE',  ( 0.0000000000000000000, 1.000000000000000000, 0.0000000000000000000 ) ) ;
#11 = VECTOR ( 'NONE', #321, 1000.000000000000000 ) ;
#12 = ORIENTED_EDGE ( 'NONE', *, *, #56, .T. ) ;
#13 = DIRECTION ( 'NONE',  ( -0.0000000000000000000, 6.123233995736769700E-017, 1.000000000000000000 ) ) ;
#14 = DIRECTION ( 'NONE',  ( 0.0000000000000000000, -1.000000000000000000, 1.112742027285172900E-016 ) ) ;
#15 = LINE ( 'NONE', #131, #260 ) ;
#16 = EDGE_CURVE ( 'NONE', #290, #116, #94, .T. ) ;
#17 = CARTESIAN_POINT ( 'NONE',  ( 0.0000000000000000000, 0.0000000000000000000, 0.0000000000000000000 ) ) ;
#18 = FACE_OUTER_BOUND ( 'NONE', #44, .T. ) ;
#19 = CARTESIAN_POINT ( 'NONE',  ( 9.797174393178825700E-016, -8.000000000000000000, 1.600000000000000500 ) ) ;
#20 = PRODUCT_RELATED_PRODUCT_CATEGORY ( 'part', '', ( #275 ) ) ;
#21 = DIRECTION ( 'NONE',  ( 0.0000000000000000000, -6.123233995736769700E-017, -1.000000000000000000 ) ) ;
#22 = ORIENTED_EDGE ( 'NONE', *, *, #38, .T. ) ;
#23 = ORIENTED_EDGE ( 'NONE', *, *, #345, .F. ) ;
#24 = ADVANCED_FACE ( 'NONE', ( #314 ), #279, .T. ) ;
#25 = LINE ( 'NONE', #222, #235 ) ;
#26 = DIRECTION ( 'NONE',  ( -1.434391312979117200E-017, 0.6859529885849687800, -0.7276458599149381300 ) ) ;
#27 = PRESENTATION_STYLE_ASSIGNMENT (( #357 ) ) ;
#28 = LINE ( 'NONE', #5, #325 ) ;
#29 = CLOSED_SHELL ( 'NONE', ( #320, #335, #254, #181, #213, #103, #336, #161, #238, #74, #298, #24 ) ) ;
#30 = DIRECTION ( 'NONE',  ( -0.0000000000000000000, 6.123233995736769700E-017, 1.000000000000000000 ) ) ;
#31 = DIRECTION ( 'NONE',  ( -0.0000000000000000000, 1.112742027285172700E-016, 1.000000000000000000 ) ) ;
#32 = CONICAL_SURFACE ( 'NONE', #281, 4.099999999993997300, 0.7559125791071209500 ) ;
#33 = CARTESIAN_POINT ( 'NONE',  ( 0.0000000000000000000, 1.343384284458706700E-027, 2.925363640940759100 ) ) ;
#34 = DIRECTION ( 'NONE',  ( -1.971276677292986200E-017, -5.913830031878958400E-017, -1.000000000000000000 ) ) ;
#35 = DIRECTION ( 'NONE',  ( 0.0000000000000000000, 1.000000000000000000, -6.123233995736769700E-017 ) ) ;
#36 = ORIENTED_EDGE ( 'NONE', *, *, #266, .T. ) ;
#37 = EDGE_LOOP ( 'NONE', ( #233, #72, #285, #253 ) ) ;
#38 = EDGE_CURVE ( 'NONE', #101, #267, #241, .T. ) ;
#39 = CIRCLE ( 'NONE', #355, 5.499999999977115200 ) ;
#40 = DIRECTION ( 'NONE',  ( 0.0000000000000000000, 1.000000000000000000, -6.123233995736769700E-017 ) ) ;
#41 = DIRECTION ( 'NONE',  ( 0.0000000000000000000, 1.000000000000000000, -7.885106709018295800E-017 ) ) ;
#42 = DIRECTION ( 'NONE',  ( 0.0000000000000000000, 1.000000000000000000, -6.123233995736769700E-017 ) ) ;
#43 = ORIENTED_EDGE ( 'NONE', *, *, #362, .T. ) ;
#44 = EDGE_LOOP ( 'NONE', ( #258, #111, #146, #109 ) ) ;
#45 = EDGE_CURVE ( 'NONE', #211, #212, #83, .T. ) ;
#46 = FACE_OUTER_BOUND ( 'NONE', #349, .T. ) ;
#47 = ORIENTED_EDGE ( 'NONE', *, *, #197, .T. ) ;
#48 = DIRECTION ( 'NONE',  ( 0.0000000000000000000, 0.0000000000000000000, 1.000000000000000000 ) ) ;
#49 =( LENGTH_UNIT ( ) NAMED_UNIT ( * ) SI_UNIT ( .MILLI., .METRE. ) );
#50 = CYLINDRICAL_SURFACE ( 'NONE', #163, 8.000000000000000000 ) ;
#51 = EDGE_LOOP ( 'NONE', ( #315, #176 ) ) ;
#52 = ORIENTED_EDGE ( 'NONE', *, *, #283, .F. ) ;
#53 = DIRECTION ( 'NONE',  ( 0.0000000000000000000, 1.000000000000000000, -5.421010862427522200E-017 ) ) ;
#54 = EDGE_CURVE ( 'NONE', #212, #7, #154, .T. ) ;
#55 = CARTESIAN_POINT ( 'NONE',  ( -2.137262456091062300E-033, -6.411787368273187100E-033, 1.600000000109958400 ) ) ;
#56 = EDGE_CURVE ( 'NONE', #259, #62, #15, .T. ) ;
#57 = ORIENTED_EDGE ( 'NONE', *, *, #56, .F. ) ;
#58 = DIRECTION ( 'NONE',  ( 0.0000000000000000000, 1.000000000000000000, 0.0000000000000000000 ) ) ;
#59 = CARTESIAN_POINT ( 'NONE',  ( 0.0000000000000000000, -1.993722678429666600E-027, 3.299999999967439600 ) ) ;
#60 = DIRECTION ( 'NONE',  ( 6.966110005382312300E-017, -0.6859529885849687800, -0.7276458599149381300 ) ) ;
#61 = FACE_OUTER_BOUND ( 'NONE', #354, .T. ) ;
#62 = VERTEX_POINT ( 'NONE', #303 ) ;
#63 = UNCERTAINTY_MEASURE_WITH_UNIT (LENGTH_MEASURE( 1.000000000000000100E-005 ), #49, 'distance_accuracy_value', 'NONE');
#64 = MECHANICAL_DESIGN_GEOMETRIC_PRESENTATION_REPRESENTATION (  '', ( #323 ), #129 ) ;
#65 = SURFACE_STYLE_FILL_AREA ( #110 ) ;
#66 = ORIENTED_EDGE ( 'NONE', *, *, #219, .F. ) ;
#67 = CIRCLE ( 'NONE', #261, 4.099999999999999600 ) ;
#68 = ORIENTED_EDGE ( 'NONE', *, *, #278, .F. ) ;
#69 = CARTESIAN_POINT ( 'NONE',  ( 0.0000000000000000000, 1.401544012693204800E-016, 2.288895073533060200 ) ) ;
#70 = PRESENTATION_LAYER_ASSIGNMENT (  '', '', ( #323 ) ) ;
#71 = DIRECTION ( 'NONE',  ( -0.0000000000000000000, 1.112742027285172700E-016, 1.000000000000000000 ) ) ;
#72 = ORIENTED_EDGE ( 'NONE', *, *, #153, .F. ) ;
#73 = AXIS2_PLACEMENT_3D ( 'NONE', #353, #322, #296 ) ;
#74 = ADVANCED_FACE ( 'NONE', ( #272, #178 ), #108, .T. ) ;
#75 = DIRECTION ( 'NONE',  ( 0.0000000000000000000, 1.000000000000000000, -5.421010862427522200E-017 ) ) ;
#76 = CONICAL_SURFACE ( 'NONE', #307, 3.897407111082884500, 0.8148837476559398500 ) ;
#77 = CARTESIAN_POINT ( 'NONE',  ( 8.000000000000000000, 0.0000000000000000000, 1.600000000000000100 ) ) ;
#78 = EDGE_LOOP ( 'NONE', ( #66, #190, #12, #216 ) ) ;
#79 =( NAMED_UNIT ( * ) PLANE_ANGLE_UNIT ( ) SI_UNIT ( $, .RADIAN. ) );
#80 = CARTESIAN_POINT ( 'NONE',  ( -2.137262456091062300E-033, 5.499999999869942300, 1.600000000109957900 ) ) ;
#81 = PRODUCT_DEFINITION_FORMATION_WITH_SPECIFIED_SOURCE ( 'ANY', '', #275, .NOT_KNOWN. ) ;
#82 = FACE_OUTER_BOUND ( 'NONE', #120, .T. ) ;
#83 = LINE ( 'NONE', #130, #205 ) ;
#84 = DIRECTION ( 'NONE',  ( 0.0000000000000000000, 1.000000000000000000, -7.885106709171944900E-017 ) ) ;
#85 = CARTESIAN_POINT ( 'NONE',  ( 0.0000000000000000000, 1.343384284458706700E-027, 2.925363640940759100 ) ) ;
#86 = SHAPE_DEFINITION_REPRESENTATION ( #329, #159 ) ;
#87 = DIRECTION ( 'NONE',  ( 0.0000000000000000000, -5.288791085302886800E-017, -1.000000000000000000 ) ) ;
#88 = CIRCLE ( 'NONE', #113, 4.099999999999999600 ) ;
#89 = ORIENTED_EDGE ( 'NONE', *, *, #219, .T. ) ;
#90 = DIRECTION ( 'NONE',  ( -1.971276677292986200E-017, -5.913830031878958400E-017, -1.000000000000000000 ) ) ;
#91 = AXIS2_PLACEMENT_3D ( 'NONE', #156, #244, #364 ) ;
#92 = CARTESIAN_POINT ( 'NONE',  ( 0.0000000000000000000, -3.273192747088413000E-064, -5.345529420184391300E-048 ) ) ;
#93 = LINE ( 'NONE', #229, #11 ) ;
#94 = CIRCLE ( 'NONE', #106, 8.000000000000000000 ) ;
#95 = AXIS2_PLACEMENT_3D ( 'NONE', #204, #328, #35 ) ;
#96 = DIRECTION ( 'NONE',  ( 0.0000000000000000000, 1.000000000000000000, -1.057758217059028900E-016 ) ) ;
#97 = CIRCLE ( 'NONE', #352, 5.499999999977115200 ) ;
#98 = DIRECTION ( 'NONE',  ( 0.0000000000000000000, 1.000000000000000000, -6.123233995736769700E-017 ) ) ;
#99 =( NAMED_UNIT ( * ) PLANE_ANGLE_UNIT ( ) SI_UNIT ( $, .RADIAN. ) );
#100 = CIRCLE ( 'NONE', #95, 8.000000000000000000 ) ;
#101 = VERTEX_POINT ( 'NONE', #343 ) ;
#102 = CARTESIAN_POINT ( 'NONE',  ( 0.0000000000000000000, 9.797174393178832300E-017, 1.600000000000000100 ) ) ;
#103 = ADVANCED_FACE ( 'NONE', ( #128, #240 ), #217, .T. ) ;
#104 = CARTESIAN_POINT ( 'NONE',  ( 0.0000000000000000000, 0.0000000000000000000, 0.0000000000000000000 ) ) ;
#105 = DIRECTION ( 'NONE',  ( 0.0000000000000000000, -6.123233995736769700E-017, -1.000000000000000000 ) ) ;
#106 = AXIS2_PLACEMENT_3D ( 'NONE', #102, #132, #75 ) ;
#107 = FACE_OUTER_BOUND ( 'NONE', #37, .T. ) ;
#108 = PLANE ( 'NONE',  #331 ) ;
#109 = ORIENTED_EDGE ( 'NONE', *, *, #38, .F. ) ;
#110 = FILL_AREA_STYLE ('',( #162 ) ) ;
#111 = ORIENTED_EDGE ( 'NONE', *, *, #155, .T. ) ;
#112 = CARTESIAN_POINT ( 'NONE',  ( 0.0000000000000000000, 8.000000000000000000, -4.898587196589415800E-016 ) ) ;
#113 = AXIS2_PLACEMENT_3D ( 'NONE', #262, #13, #42 ) ;
#114 = DIRECTION ( 'NONE',  ( 0.0000000000000000000, -6.123233995736769700E-017, -1.000000000000000000 ) ) ;
#115 = FACE_OUTER_BOUND ( 'NONE', #227, .T. ) ;
#116 = VERTEX_POINT ( 'NONE', #6 ) ;
#117 = DIRECTION ( 'NONE',  ( 0.0000000000000000000, 1.000000000000000000, 0.0000000000000000000 ) ) ;
#118 = DIRECTION ( 'NONE',  ( 8.911091732072862500E-017, 0.7276458598738112500, 0.6859529886285954400 ) ) ;
#119 = DIRECTION ( 'NONE',  ( 0.0000000000000000000, -6.123233995736769700E-017, -1.000000000000000000 ) ) ;
#120 = EDGE_LOOP ( 'NONE', ( #135, #326, #127, #139 ) ) ;
#121 = ORIENTED_EDGE ( 'NONE', *, *, #327, .F. ) ;
#122 = VERTEX_POINT ( 'NONE', #193 ) ;
#123 = FILL_AREA_STYLE_COLOUR ( '', #2 ) ;
#124 = DIRECTION ( 'NONE',  ( 0.0000000000000000000, -6.123233995736769700E-017, -1.000000000000000000 ) ) ;
#125 = FACE_OUTER_BOUND ( 'NONE', #270, .T. ) ;
#126 = AXIS2_PLACEMENT_3D ( 'NONE', #168, #30, #346 ) ;
#127 = ORIENTED_EDGE ( 'NONE', *, *, #334, .F. ) ;
#128 = FACE_BOUND ( 'NONE', #147, .T. ) ;
#129 =( GEOMETRIC_REPRESENTATION_CONTEXT ( 3 ) GLOBAL_UNCERTAINTY_ASSIGNED_CONTEXT ( ( #263 ) ) GLOBAL_UNIT_ASSIGNED_CONTEXT ( ( #237, #99, #360 ) ) REPRESENTATION_CONTEXT ( 'NONE', 'WORKASPACE' ) );
#130 = CARTESIAN_POINT ( 'NONE',  ( 0.0000000000000000000, 4.099999999993997300, 2.288895073490948600 ) ) ;
#131 = CARTESIAN_POINT ( 'NONE',  ( 0.0000000000000000000, -3.897407111082884500, 3.299999999853753300 ) ) ;
#132 = DIRECTION ( 'NONE',  ( 0.0000000000000000000, -6.123233995736769700E-017, -1.000000000000000000 ) ) ;
#133 = APPLICATION_CONTEXT ( 'automotive_design' ) ;
#134 = LINE ( 'NONE', #228, #358 ) ;
#135 = ORIENTED_EDGE ( 'NONE', *, *, #345, .T. ) ;
#136 = DIRECTION ( 'NONE',  ( 0.0000000000000000000, 6.123233995736769700E-017, 1.000000000000000000 ) ) ;
#137 = DIRECTION ( 'NONE',  ( 0.0000000000000000000, -1.000000000000000000, 1.112742027236485100E-016 ) ) ;
#138 = DIRECTION ( 'NONE',  ( 0.0000000000000000000, -6.123233995736769700E-017, -1.000000000000000000 ) ) ;
#139 = ORIENTED_EDGE ( 'NONE', *, *, #311, .F. ) ;
#140 = DIRECTION ( 'NONE',  ( 0.0000000000000000000, -1.000000000000000000, 1.112742027236485100E-016 ) ) ;
#141 = DIRECTION ( 'NONE',  ( 0.0000000000000000000, -1.000000000000000000, 1.112742027285172900E-016 ) ) ;
#142 = FACE_OUTER_BOUND ( 'NONE', #202, .T. ) ;
#143 = VERTEX_POINT ( 'NONE', #112 ) ;
#144 = DIRECTION ( 'NONE',  ( 0.0000000000000000000, -6.123233995736769700E-017, -1.000000000000000000 ) ) ;
#145 = EDGE_CURVE ( 'NONE', #101, #62, #232, .T. ) ;
#146 = ORIENTED_EDGE ( 'NONE', *, *, #287, .F. ) ;
#147 = EDGE_LOOP ( 'NONE', ( #356, #332 ) ) ;
#148 = AXIS2_PLACEMENT_3D ( 'NONE', #293, #309, #53 ) ;
#149 = LINE ( 'NONE', #284, #201 ) ;
#150 = ORIENTED_EDGE ( 'NONE', *, *, #327, .T. ) ;
#151 = SURFACE_SIDE_STYLE ('',( #158 ) ) ;
#152 = VECTOR ( 'NONE', #119, 1000.000000000000000 ) ;
#153 = EDGE_CURVE ( 'NONE', #211, #259, #185, .T. ) ;
#154 = CIRCLE ( 'NONE', #91, 4.099999999999999600 ) ;
#155 = EDGE_CURVE ( 'NONE', #62, #122, #134, .T. ) ;
#156 = CARTESIAN_POINT ( 'NONE',  ( 0.0000000000000000000, 1.401544012693204800E-016, 2.288895073533060200 ) ) ;
#157 = SURFACE_STYLE_USAGE ( .BOTH. , #304 ) ;
#158 = SURFACE_STYLE_FILL_AREA ( #330 ) ;
#159 = ADVANCED_BREP_SHAPE_REPRESENTATION ( '7250738_CNAJF00', ( #337, #342 ), #297 ) ;
#160 = PRODUCT_CONTEXT ( 'NONE', #133, 'mechanical' ) ;
#161 = ADVANCED_FACE ( 'NONE', ( #125 ), #172, .T. ) ;
#162 = FILL_AREA_STYLE_COLOUR ( '', #288 ) ;
#163 = AXIS2_PLACEMENT_3D ( 'NONE', #17, #200, #207 ) ;
#164 = DIRECTION ( 'NONE',  ( 0.0000000000000000000, -6.123233995736769700E-017, -1.000000000000000000 ) ) ;
#165 = DIRECTION ( 'NONE',  ( 0.0000000000000000000, 1.000000000000000000, -6.123233995736769700E-017 ) ) ;
#166 = CONICAL_SURFACE ( 'NONE', #289, 5.499999999869942300, 0.7559125790790006700 ) ;
#167 = VECTOR ( 'NONE', #26, 1000.000000000000100 ) ;
#168 = CARTESIAN_POINT ( 'NONE',  ( 0.0000000000000000000, -1.636596373544206500E-064, -2.672764710092195600E-048 ) ) ;
#169 = AXIS2_PLACEMENT_3D ( 'NONE', #59, #255, #137 ) ;
#170 = CARTESIAN_POINT ( 'NONE',  ( 0.0000000000000000000, 1.146823756901471800E-032, 2.288895073490948600 ) ) ;
#171 = DIRECTION ( 'NONE',  ( 0.0000000000000000000, 1.000000000000000000, 0.0000000000000000000 ) ) ;
#172 = CYLINDRICAL_SURFACE ( 'NONE', #268, 8.000000000000000000 ) ;
#173 = VERTEX_POINT ( 'NONE', #224 ) ;
#174 = DIRECTION ( 'NONE',  ( 0.0000000000000000000, -6.123233995736769700E-017, -1.000000000000000000 ) ) ;
#175 = CIRCLE ( 'NONE', #169, 3.897407111253414800 ) ;
#176 = ORIENTED_EDGE ( 'NONE', *, *, #257, .T. ) ;
#177 = AXIS2_PLACEMENT_3D ( 'NONE', #251, #87, #171 ) ;
#178 = FACE_BOUND ( 'NONE', #51, .T. ) ;
#179 = ORIENTED_EDGE ( 'NONE', *, *, #197, .F. ) ;
#180 = CARTESIAN_POINT ( 'NONE',  ( 0.0000000000000000000, 0.0000000000000000000, 0.0000000000000000000 ) ) ;
#181 = ADVANCED_FACE ( 'NONE', ( #61 ), #76, .F. ) ;
#182 = CARTESIAN_POINT ( 'NONE',  ( -2.241082117158141700E-027, -6.723246351474425500E-027, 1.599999999996271500 ) ) ;
#183 = CARTESIAN_POINT ( 'NONE',  ( -2.241082117158141300E-027, 5.499999999977115200, 1.599999999996271300 ) ) ;
#184 = AXIS2_PLACEMENT_3D ( 'NONE', #180, #124, #98 ) ;
#185 = CIRCLE ( 'NONE', #249, 3.499999999917236000 ) ;
#186 = ORIENTED_EDGE ( 'NONE', *, *, #257, .F. ) ;
#187 = ORIENTED_EDGE ( 'NONE', *, *, #334, .T. ) ;
#188 = EDGE_CURVE ( 'NONE', #242, #4, #231, .T. ) ;
#189 = AXIS2_PLACEMENT_3D ( 'NONE', #92, #21, #40 ) ;
#190 = ORIENTED_EDGE ( 'NONE', *, *, #153, .T. ) ;
#191 =( NAMED_UNIT ( * ) PLANE_ANGLE_UNIT ( ) SI_UNIT ( $, .RADIAN. ) );
#192 =( NAMED_UNIT ( * ) SI_UNIT ( $, .STERADIAN. ) SOLID_ANGLE_UNIT ( ) );
#193 = CARTESIAN_POINT ( 'NONE',  ( 6.735557395260006200E-016, -5.499999999977115200, 1.599999999996272000 ) ) ;
#194 = CARTESIAN_POINT ( 'NONE',  ( 0.0000000000000000000, 4.099999999999999600, -2.510525938252075200E-016 ) ) ;
#195 = EDGE_LOOP ( 'NONE', ( #187, #359 ) ) ;
#196 = DIRECTION ( 'NONE',  ( 0.0000000000000000000, -6.123233995736769700E-017, -1.000000000000000000 ) ) ;
#197 = EDGE_CURVE ( 'NONE', #62, #101, #175, .T. ) ;
#198 = EDGE_LOOP ( 'NONE', ( #300, #47, #22, #186 ) ) ;
#199 = CARTESIAN_POINT ( 'NONE',  ( 0.0000000000000000000, 0.0000000000000000000, 0.0000000000000000000 ) ) ;
#200 = DIRECTION ( 'NONE',  ( 0.0000000000000000000, -6.123233995736769700E-017, -1.000000000000000000 ) ) ;
#201 = VECTOR ( 'NONE', #144, 1000.000000000000000 ) ;
#202 = EDGE_LOOP ( 'NONE', ( #121, #220, #221, #363 ) ) ;
#203 = AXIS2_PLACEMENT_3D ( 'NONE', #271, #312, #301 ) ;
#204 = CARTESIAN_POINT ( 'NONE',  ( 0.0000000000000000000, -3.273192747088413000E-064, -5.345529420184391300E-048 ) ) ;
#205 = VECTOR ( 'NONE', #273, 1000.000000000000000 ) ;
#206 = STYLED_ITEM ( 'NONE', ( #210 ), #159 ) ;
#207 = DIRECTION ( 'NONE',  ( 0.0000000000000000000, 1.000000000000000000, -6.123233995736769700E-017 ) ) ;
#208 = ORIENTED_EDGE ( 'NONE', *, *, #234, .F. ) ;
#209 = AXIS2_PLACEMENT_3D ( 'NONE', #339, #164, #165 ) ;
#210 = PRESENTATION_STYLE_ASSIGNMENT (( #157 ) ) ;
#211 = VERTEX_POINT ( 'NONE', #280 ) ;
#212 = VERTEX_POINT ( 'NONE', #277 ) ;
#213 = ADVANCED_FACE ( 'NONE', ( #18 ), #166, .T. ) ;
#214 = DIRECTION ( 'NONE',  ( 1.000000000000000000, 0.0000000000000000000, 0.0000000000000000000 ) ) ;
#215 = FACE_OUTER_BOUND ( 'NONE', #78, .T. ) ;
#216 = ORIENTED_EDGE ( 'NONE', *, *, #145, .F. ) ;
#217 = PLANE ( 'NONE',  #209 ) ;
#218 = APPLICATION_PROTOCOL_DEFINITION ( 'draft international standard', 'automotive_design', 1998, #133 ) ;
#219 = EDGE_CURVE ( 'NONE', #211, #101, #25, .T. ) ;
#220 = ORIENTED_EDGE ( 'NONE', *, *, #8, .T. ) ;
#221 = ORIENTED_EDGE ( 'NONE', *, *, #188, .F. ) ;
#222 = CARTESIAN_POINT ( 'NONE',  ( 4.772947143561788100E-016, 3.897407111082884500, 3.299999999853752400 ) ) ;
#223 = AXIS2_PLACEMENT_3D ( 'NONE', #85, #282, #117 ) ;
#224 = CARTESIAN_POINT ( 'NONE',  ( 9.797174393178825700E-016, -8.000000000000000000, 4.898587196589415800E-016 ) ) ;
#225 = DIRECTION ( 'NONE',  ( 0.0000000000000000000, 1.000000000000000000, -6.123233995736769700E-017 ) ) ;
#226 = CIRCLE ( 'NONE', #189, 8.000000000000000000 ) ;
#227 = EDGE_LOOP ( 'NONE', ( #208, #36, #150, #269 ) ) ;
#228 = CARTESIAN_POINT ( 'NONE',  ( 6.735557395151168000E-016, -5.499999999869942300, 1.600000000109958800 ) ) ;
#229 = CARTESIAN_POINT ( 'NONE',  ( 5.021051876496797200E-016, -4.099999999993997300, 2.288895073490948600 ) ) ;
#230 = DIRECTION ( 'NONE',  ( 0.0000000000000000000, 1.000000000000000000, -7.885106709018295800E-017 ) ) ;
#231 = CIRCLE ( 'NONE', #126, 4.099999999999999600 ) ;
#232 = CIRCLE ( 'NONE', #276, 3.897407111253414800 ) ;
#233 = ORIENTED_EDGE ( 'NONE', *, *, #266, .F. ) ;
#234 = EDGE_CURVE ( 'NONE', #259, #211, #313, .T. ) ;
#235 = VECTOR ( 'NONE', #118, 1000.000000000000000 ) ;
#236 = CARTESIAN_POINT ( 'NONE',  ( -2.241082117158141700E-027, -6.723246351474425500E-027, 1.599999999996271500 ) ) ;
#237 =( LENGTH_UNIT ( ) NAMED_UNIT ( * ) SI_UNIT ( .MILLI., .METRE. ) );
#238 = ADVANCED_FACE ( 'NONE', ( #107 ), #32, .F. ) ;
#239 = PRODUCT_DEFINITION ( 'UNKNOWN', '', #81, #350 ) ;
#240 = FACE_OUTER_BOUND ( 'NONE', #195, .T. ) ;
#241 = LINE ( 'NONE', #80, #167 ) ;
#242 = VERTEX_POINT ( 'NONE', #318 ) ;
#243 = PRESENTATION_LAYER_ASSIGNMENT (  '', '', ( #206 ) ) ;
#244 = DIRECTION ( 'NONE',  ( 0.0000000000000000000, -6.123233995736769700E-017, -1.000000000000000000 ) ) ;
#245 = MECHANICAL_DESIGN_GEOMETRIC_PRESENTATION_REPRESENTATION (  '', ( #206 ), #264 ) ;
#246 = DIRECTION ( 'NONE',  ( 0.0000000000000000000, -0.7276458598738109200, 0.6859529886285955500 ) ) ;
#247 =( NAMED_UNIT ( * ) SI_UNIT ( $, .STERADIAN. ) SOLID_ANGLE_UNIT ( ) );
#248 = CONICAL_SURFACE ( 'NONE', #316, 3.897407111082884500, 0.8148837476559398500 ) ;
#249 = AXIS2_PLACEMENT_3D ( 'NONE', #33, #114, #10 ) ;
#250 = CARTESIAN_POINT ( 'NONE',  ( 0.0000000000000000000, -4.825749293594033400E-032, 3.299999999853752800 ) ) ;
#251 = CARTESIAN_POINT ( 'NONE',  ( 0.0000000000000000000, 1.146823756901471800E-032, 2.288895073490948600 ) ) ;
#252 = VECTOR ( 'NONE', #105, 1000.000000000000000 ) ;
#253 = ORIENTED_EDGE ( 'NONE', *, *, #54, .T. ) ;
#254 = ADVANCED_FACE ( 'NONE', ( #115 ), #305, .F. ) ;
#255 = DIRECTION ( 'NONE',  ( 0.0000000000000000000, -6.123233995736769700E-017, -1.000000000000000000 ) ) ;
#256 = DIRECTION ( 'NONE',  ( -1.971276677292986200E-017, -5.913830031878958400E-017, -1.000000000000000000 ) ) ;
#257 = EDGE_CURVE ( 'NONE', #122, #267, #97, .T. ) ;
#258 = ORIENTED_EDGE ( 'NONE', *, *, #145, .T. ) ;
#259 = VERTEX_POINT ( 'NONE', #351 ) ;
#260 = VECTOR ( 'NONE', #246, 1000.000000000000100 ) ;
#261 = AXIS2_PLACEMENT_3D ( 'NONE', #69, #174, #96 ) ;
#262 = CARTESIAN_POINT ( 'NONE',  ( 0.0000000000000000000, -1.636596373544206500E-064, -2.672764710092195600E-048 ) ) ;
#263 = UNCERTAINTY_MEASURE_WITH_UNIT (LENGTH_MEASURE( 1.000000000000000100E-005 ), #237, 'distance_accuracy_value', 'NONE');
#264 =( GEOMETRIC_REPRESENTATION_CONTEXT ( 3 ) GLOBAL_UNCERTAINTY_ASSIGNED_CONTEXT ( ( #63 ) ) GLOBAL_UNIT_ASSIGNED_CONTEXT ( ( #49, #191, #247 ) ) REPRESENTATION_CONTEXT ( 'NONE', 'WORKASPACE' ) );
#265 = ORIENTED_EDGE ( 'NONE', *, *, #234, .T. ) ;
#266 = EDGE_CURVE ( 'NONE', #259, #7, #93, .T. ) ;
#267 = VERTEX_POINT ( 'NONE', #183 ) ;
#268 = AXIS2_PLACEMENT_3D ( 'NONE', #199, #347, #225 ) ;
#269 = ORIENTED_EDGE ( 'NONE', *, *, #45, .F. ) ;
#270 = EDGE_LOOP ( 'NONE', ( #306, #274, #295, #68 ) ) ;
#271 = CARTESIAN_POINT ( 'NONE',  ( -2.137262456091062300E-033, -6.411787368273187100E-033, 1.600000000109958400 ) ) ;
#272 = FACE_OUTER_BOUND ( 'NONE', #341, .T. ) ;
#273 = DIRECTION ( 'NONE',  ( 0.0000000000000000000, 0.6859529886054303000, -0.7276458598956490100 ) ) ;
#274 = ORIENTED_EDGE ( 'NONE', *, *, #16, .T. ) ;
#275 = PRODUCT ( '7250738_CNAJF00', '7250738_CNAJF00', '', ( #160 ) ) ;
#276 = AXIS2_PLACEMENT_3D ( 'NONE', #317, #138, #140 ) ;
#277 = CARTESIAN_POINT ( 'NONE',  ( 0.0000000000000000000, 4.099999999954299300, 2.288895073533059800 ) ) ;
#278 = EDGE_CURVE ( 'NONE', #173, #143, #226, .T. ) ;
#279 = CONICAL_SURFACE ( 'NONE', #203, 5.499999999869942300, 0.7559125790790006700 ) ;
#280 = CARTESIAN_POINT ( 'NONE',  ( 4.529605470342502800E-016, 3.499999999917236000, 2.925363640940759100 ) ) ;
#281 = AXIS2_PLACEMENT_3D ( 'NONE', #170, #9, #58 ) ;
#282 = DIRECTION ( 'NONE',  ( 0.0000000000000000000, -6.123233995736769700E-017, -1.000000000000000000 ) ) ;
#283 = EDGE_CURVE ( 'NONE', #4, #242, #88, .T. ) ;
#284 = CARTESIAN_POINT ( 'NONE',  ( 9.797174393178825700E-016, -8.000000000000000000, 4.898587196589415800E-016 ) ) ;
#285 = ORIENTED_EDGE ( 'NONE', *, *, #45, .T. ) ;
#286 = CARTESIAN_POINT ( 'NONE',  ( 0.0000000000000000000, 8.000000000000000000, -4.898587196589415800E-016 ) ) ;
#287 = EDGE_CURVE ( 'NONE', #267, #122, #39, .T. ) ;
#288 = COLOUR_RGB ( '',0.7529411764705882200, 0.7529411764705882200, 0.7529411764705882200 ) ;
#289 = AXIS2_PLACEMENT_3D ( 'NONE', #55, #34, #84 ) ;
#290 = VERTEX_POINT ( 'NONE', #19 ) ;
#291 = ORIENTED_EDGE ( 'NONE', *, *, #16, .F. ) ;
#292 = CARTESIAN_POINT ( 'NONE',  ( 0.0000000000000000000, -4.825749293594033400E-032, 3.299999999853752800 ) ) ;
#293 = CARTESIAN_POINT ( 'NONE',  ( 0.0000000000000000000, 9.797174393178832300E-017, 1.600000000000000100 ) ) ;
#294 = LINE ( 'NONE', #286, #152 ) ;
#295 = ORIENTED_EDGE ( 'NONE', *, *, #311, .T. ) ;
#296 = DIRECTION ( 'NONE',  ( 0.0000000000000000000, 1.000000000000000000, -6.123233995736769700E-017 ) ) ;
#297 =( GEOMETRIC_REPRESENTATION_CONTEXT ( 3 ) GLOBAL_UNCERTAINTY_ASSIGNED_CONTEXT ( ( #361 ) ) GLOBAL_UNIT_ASSIGNED_CONTEXT ( ( #1, #79, #192 ) ) REPRESENTATION_CONTEXT ( 'NONE', 'WORKASPACE' ) );
#298 = ADVANCED_FACE ( 'NONE', ( #215 ), #248, .F. ) ;
#299 = ORIENTED_EDGE ( 'NONE', *, *, #54, .F. ) ;
#300 = ORIENTED_EDGE ( 'NONE', *, *, #155, .F. ) ;
#301 = DIRECTION ( 'NONE',  ( 0.0000000000000000000, 1.000000000000000000, -7.885106709171944900E-017 ) ) ;
#302 = EDGE_CURVE ( 'NONE', #290, #173, #149, .T. ) ;
#303 = CARTESIAN_POINT ( 'NONE',  ( 5.921810787064235100E-016, -3.897407111253414800, 3.299999999967440100 ) ) ;
#304 = SURFACE_SIDE_STYLE ('',( #65 ) ) ;
#305 = CONICAL_SURFACE ( 'NONE', #177, 4.099999999993997300, 0.7559125791071209500 ) ;
#306 = ORIENTED_EDGE ( 'NONE', *, *, #302, .F. ) ;
#307 = AXIS2_PLACEMENT_3D ( 'NONE', #250, #31, #141 ) ;
#308 = CARTESIAN_POINT ( 'NONE',  ( 5.021051876448179700E-016, -4.099999999954298400, 2.288895073533060700 ) ) ;
#309 = DIRECTION ( 'NONE',  ( 0.0000000000000000000, -6.123233995736769700E-017, -1.000000000000000000 ) ) ;
#310 = APPLICATION_CONTEXT ( 'automotive_design' ) ;
#311 = EDGE_CURVE ( 'NONE', #116, #143, #294, .T. ) ;
#312 = DIRECTION ( 'NONE',  ( -1.971276677292986200E-017, -5.913830031878958400E-017, -1.000000000000000000 ) ) ;
#313 = CIRCLE ( 'NONE', #223, 3.499999999917236000 ) ;
#314 = FACE_OUTER_BOUND ( 'NONE', #198, .T. ) ;
#315 = ORIENTED_EDGE ( 'NONE', *, *, #287, .T. ) ;
#316 = AXIS2_PLACEMENT_3D ( 'NONE', #292, #71, #14 ) ;
#317 = CARTESIAN_POINT ( 'NONE',  ( 0.0000000000000000000, -1.993722678429666600E-027, 3.299999999967439600 ) ) ;
#318 = CARTESIAN_POINT ( 'NONE',  ( 0.0000000000000000000, 4.099999999999999600, -2.510525938252075200E-016 ) ) ;
#319 = CYLINDRICAL_SURFACE ( 'NONE', #184, 4.099999999999999600 ) ;
#320 = ADVANCED_FACE ( 'NONE', ( #142 ), #324, .F. ) ;
#321 = DIRECTION ( 'NONE',  ( 8.400501318612011100E-017, -0.6859529886054303000, -0.7276458598956490100 ) ) ;
#322 = DIRECTION ( 'NONE',  ( 0.0000000000000000000, -6.123233995736769700E-017, -1.000000000000000000 ) ) ;
#323 = STYLED_ITEM ( 'NONE', ( #27 ), #337 ) ;
#324 = CYLINDRICAL_SURFACE ( 'NONE', #73, 4.099999999999999600 ) ;
#325 = VECTOR ( 'NONE', #196, 1000.000000000000000 ) ;
#326 = ORIENTED_EDGE ( 'NONE', *, *, #302, .T. ) ;
#327 = EDGE_CURVE ( 'NONE', #7, #212, #67, .T. ) ;
#328 = DIRECTION ( 'NONE',  ( 0.0000000000000000000, -6.123233995736769700E-017, -1.000000000000000000 ) ) ;
#329 = PRODUCT_DEFINITION_SHAPE ( 'NONE', 'NONE',  #239 ) ;
#330 = FILL_AREA_STYLE ('',( #123 ) ) ;
#331 = AXIS2_PLACEMENT_3D ( 'NONE', #77, #136, #3 ) ;
#332 = ORIENTED_EDGE ( 'NONE', *, *, #283, .T. ) ;
#333 = ORIENTED_EDGE ( 'NONE', *, *, #8, .F. ) ;
#334 = EDGE_CURVE ( 'NONE', #143, #173, #100, .T. ) ;
#335 = ADVANCED_FACE ( 'NONE', ( #82 ), #50, .T. ) ;
#336 = ADVANCED_FACE ( 'NONE', ( #46 ), #319, .F. ) ;
#337 = MANIFOLD_SOLID_BREP ( 'Importiert1', #29 ) ;
#338 = CARTESIAN_POINT ( 'NONE',  ( 5.021051876504147400E-016, -4.099999999999999600, 2.510525938252075200E-016 ) ) ;
#339 = CARTESIAN_POINT ( 'NONE',  ( 4.099999999999999600, 0.0000000000000000000, 0.0000000000000000000 ) ) ;
#340 = LINE ( 'NONE', #194, #252 ) ;
#341 = EDGE_LOOP ( 'NONE', ( #23, #291 ) ) ;
#342 = AXIS2_PLACEMENT_3D ( 'NONE', #104, #48, #214 ) ;
#343 = CARTESIAN_POINT ( 'NONE',  ( 1.675585175436393400E-017, 3.897407111253414800, 3.299999999967439200 ) ) ;
#344 = APPLICATION_PROTOCOL_DEFINITION ( 'draft international standard', 'automotive_design', 1998, #310 ) ;
#345 = EDGE_CURVE ( 'NONE', #116, #290, #348, .T. ) ;
#346 = DIRECTION ( 'NONE',  ( 0.0000000000000000000, 1.000000000000000000, -6.123233995736769700E-017 ) ) ;
#347 = DIRECTION ( 'NONE',  ( 0.0000000000000000000, -6.123233995736769700E-017, -1.000000000000000000 ) ) ;
#348 = CIRCLE ( 'NONE', #148, 8.000000000000000000 ) ;
#349 = EDGE_LOOP ( 'NONE', ( #333, #299, #43, #52 ) ) ;
#350 = PRODUCT_DEFINITION_CONTEXT ( 'detailed design', #310, 'design' ) ;
#351 = CARTESIAN_POINT ( 'NONE',  ( 0.0000000000000000000, -3.499999999917236000, 2.925363640940759100 ) ) ;
#352 = AXIS2_PLACEMENT_3D ( 'NONE', #182, #256, #41 ) ;
#353 = CARTESIAN_POINT ( 'NONE',  ( 0.0000000000000000000, 0.0000000000000000000, 0.0000000000000000000 ) ) ;
#354 = EDGE_LOOP ( 'NONE', ( #265, #89, #179, #57 ) ) ;
#355 = AXIS2_PLACEMENT_3D ( 'NONE', #236, #90, #230 ) ;
#356 = ORIENTED_EDGE ( 'NONE', *, *, #188, .T. ) ;
#357 = SURFACE_STYLE_USAGE ( .BOTH. , #151 ) ;
#358 = VECTOR ( 'NONE', #60, 1000.000000000000100 ) ;
#359 = ORIENTED_EDGE ( 'NONE', *, *, #278, .T. ) ;
#360 =( NAMED_UNIT ( * ) SI_UNIT ( $, .STERADIAN. ) SOLID_ANGLE_UNIT ( ) );
#361 = UNCERTAINTY_MEASURE_WITH_UNIT (LENGTH_MEASURE( 1.000000000000000100E-005 ), #1, 'distance_accuracy_value', 'NONE');
#362 = EDGE_CURVE ( 'NONE', #212, #242, #340, .T. ) ;
#363 = ORIENTED_EDGE ( 'NONE', *, *, #362, .F. ) ;
#364 = DIRECTION ( 'NONE',  ( 0.0000000000000000000, 1.000000000000000000, -1.057758217059028900E-016 ) ) ;
ENDSEC;
END-ISO-10303-21;
