ISO-10303-21;
HEADER;
FILE_DESCRIPTION (( 'STEP AP214' ),
    '1' );
FILE_NAME ('7250740',
    '2019-02-01T14:21:22',
    ( '' ),
    ('JUGARD+KÜNSTNER GmbH'),
    'SwSTEP 2.0',
    'SolidWorks 2017',
    '' );
FILE_SCHEMA (( 'AUTOMOTIVE_DESIGN' ));
ENDSEC;

DATA;
#1 = ORIENTED_EDGE ( 'NONE', *, *, #236, .T. ) ;
#2 = DIRECTION ( 'NONE',  ( 1.000000000000000000, 0.0000000000000000000, 0.0000000000000000000 ) ) ;
#3 = EDGE_CURVE ( 'NONE', #248, #166, #230, .T. ) ;
#4 = CARTESIAN_POINT ( 'NONE',  ( -0.5000000000000000000, 0.0000000000000000000, 0.0000000000000000000 ) ) ;
#5 = DIRECTION ( 'NONE',  ( 0.0000000000000000000, 0.0000000000000000000, -1.000000000000000000 ) ) ;
#6 = PRESENTATION_LAYER_ASSIGNMENT (  '', '', ( #208 ) ) ;
#7 = ORIENTED_EDGE ( 'NONE', *, *, #93, .F. ) ;
#8 = SURFACE_SIDE_STYLE ('',( #220 ) ) ;
#9 = FACE_OUTER_BOUND ( 'NONE', #17, .T. ) ;
#10 = DIRECTION ( 'NONE',  ( 1.000000000000000000, 0.0000000000000000000, -0.0000000000000000000 ) ) ;
#11 = AXIS2_PLACEMENT_3D ( 'NONE', #172, #134, #5 ) ;
#12 = ADVANCED_FACE ( 'NONE', ( #113, #53 ), #66, .F. ) ;
#13 = DIRECTION ( 'NONE',  ( 0.0000000000000000000, 0.0000000000000000000, 1.000000000000000000 ) ) ;
#14 = APPLICATION_CONTEXT ( 'automotive_design' ) ;
#15 = MECHANICAL_DESIGN_GEOMETRIC_PRESENTATION_REPRESENTATION (  '', ( #208 ), #211 ) ;
#16 = FACE_OUTER_BOUND ( 'NONE', #107, .T. ) ;
#17 = EDGE_LOOP ( 'NONE', ( #216, #190, #255, #147 ) ) ;
#18 = EDGE_CURVE ( 'NONE', #91, #156, #184, .T. ) ;
#19 = CIRCLE ( 'NONE', #60, 5.250000000000000000 ) ;
#20 = MANIFOLD_SOLID_BREP ( 'Importiert1', #133 ) ;
#21 = ORIENTED_EDGE ( 'NONE', *, *, #171, .F. ) ;
#22 = PRODUCT_DEFINITION_CONTEXT ( 'detailed design', #126, 'design' ) ;
#23 = FILL_AREA_STYLE_COLOUR ( '', #244 ) ;
#24 = AXIS2_PLACEMENT_3D ( 'NONE', #101, #180, #100 ) ;
#25 = EDGE_LOOP ( 'NONE', ( #243, #1, #158, #224 ) ) ;
#26 = DIRECTION ( 'NONE',  ( 1.000000000000000000, 0.0000000000000000000, -0.0000000000000000000 ) ) ;
#27 = CARTESIAN_POINT ( 'NONE',  ( -34.92499999999999700, 6.429395695523604200E-016, 5.250000000000000000 ) ) ;
#28 = ORIENTED_EDGE ( 'NONE', *, *, #39, .T. ) ;
#29 = ORIENTED_EDGE ( 'NONE', *, *, #221, .T. ) ;
#30 =( NAMED_UNIT ( * ) SI_UNIT ( $, .STERADIAN. ) SOLID_ANGLE_UNIT ( ) );
#31 = AXIS2_PLACEMENT_3D ( 'NONE', #4, #235, #46 ) ;
#32 = EDGE_CURVE ( 'NONE', #169, #61, #192, .T. ) ;
#33 = FACE_OUTER_BOUND ( 'NONE', #69, .T. ) ;
#34 =( NAMED_UNIT ( * ) PLANE_ANGLE_UNIT ( ) SI_UNIT ( $, .RADIAN. ) );
#35 = DIRECTION ( 'NONE',  ( 0.0000000000000000000, 0.0000000000000000000, -1.000000000000000000 ) ) ;
#36 = DIRECTION ( 'NONE',  ( 1.000000000000000000, 0.0000000000000000000, 0.0000000000000000000 ) ) ;
#37 = FACE_OUTER_BOUND ( 'NONE', #217, .T. ) ;
#38 = ORIENTED_EDGE ( 'NONE', *, *, #118, .F. ) ;
#39 = EDGE_CURVE ( 'NONE', #207, #143, #102, .T. ) ;
#40 = ADVANCED_FACE ( 'NONE', ( #132 ), #90, .T. ) ;
#41 = CYLINDRICAL_SURFACE ( 'NONE', #11, 5.250000000000000000 ) ;
#42 = CARTESIAN_POINT ( 'NONE',  ( -2.000000000000001800, 0.0000000000000000000, 0.0000000000000000000 ) ) ;
#43 = DIRECTION ( 'NONE',  ( 0.0000000000000000000, 0.0000000000000000000, -1.000000000000000000 ) ) ;
#44 = ORIENTED_EDGE ( 'NONE', *, *, #18, .F. ) ;
#45 = DIRECTION ( 'NONE',  ( 0.0000000000000000000, 0.0000000000000000000, 1.000000000000000000 ) ) ;
#46 = DIRECTION ( 'NONE',  ( 0.0000000000000000000, 0.0000000000000000000, 1.000000000000000000 ) ) ;
#47 = DIRECTION ( 'NONE',  ( 1.000000000000000000, 0.0000000000000000000, -0.0000000000000000000 ) ) ;
#48 = CARTESIAN_POINT ( 'NONE',  ( -2.000000000000001800, 0.0000000000000000000, -5.250000000000000000 ) ) ;
#49 = CARTESIAN_POINT ( 'NONE',  ( -34.92499999999999700, 0.0000000000000000000, 0.0000000000000000000 ) ) ;
#50 = EDGE_CURVE ( 'NONE', #169, #248, #94, .T. ) ;
#51 = CARTESIAN_POINT ( 'NONE',  ( -2.000000000000001800, 6.429395695523604200E-016, 5.250000000000000000 ) ) ;
#52 = CARTESIAN_POINT ( 'NONE',  ( 0.0000000000000000000, 0.0000000000000000000, 0.0000000000000000000 ) ) ;
#53 = FACE_OUTER_BOUND ( 'NONE', #99, .T. ) ;
#54 = ORIENTED_EDGE ( 'NONE', *, *, #221, .F. ) ;
#55 = ADVANCED_FACE ( 'NONE', ( #33 ), #141, .F. ) ;
#56 = DIRECTION ( 'NONE',  ( -1.000000000000000000, -0.0000000000000000000, 0.0000000000000000000 ) ) ;
#57 = FACE_BOUND ( 'NONE', #59, .T. ) ;
#58 = PRODUCT_CONTEXT ( 'NONE', #14, 'mechanical' ) ;
#59 = EDGE_LOOP ( 'NONE', ( #189, #163 ) ) ;
#60 = AXIS2_PLACEMENT_3D ( 'NONE', #52, #155, #35 ) ;
#61 = VERTEX_POINT ( 'NONE', #136 ) ;
#62 = VERTEX_POINT ( 'NONE', #75 ) ;
#63 = CONICAL_SURFACE ( 'NONE', #204, 10.00000000000000000, 0.7853981633974516100 ) ;
#64 = DIRECTION ( 'NONE',  ( -1.000000000000000000, -0.0000000000000000000, 0.0000000000000000000 ) ) ;
#65 = AXIS2_PLACEMENT_3D ( 'NONE', #177, #251, #13 ) ;
#66 = PLANE ( 'NONE',  #195 ) ;
#67 =( NAMED_UNIT ( * ) PLANE_ANGLE_UNIT ( ) SI_UNIT ( $, .RADIAN. ) );
#68 = EDGE_CURVE ( 'NONE', #61, #166, #77, .T. ) ;
#69 = EDGE_LOOP ( 'NONE', ( #29, #252, #164, #7 ) ) ;
#70 = DIRECTION ( 'NONE',  ( 1.000000000000000000, 0.0000000000000000000, -0.0000000000000000000 ) ) ;
#71 = CARTESIAN_POINT ( 'NONE',  ( -34.92499999999999700, 1.224646799147353300E-015, 10.00000000000000000 ) ) ;
#72 = COLOUR_RGB ( '',0.7529411764705882200, 0.7529411764705882200, 0.7529411764705882200 ) ;
#73 = DIRECTION ( 'NONE',  ( 1.000000000000000000, 0.0000000000000000000, -0.0000000000000000000 ) ) ;
#74 = CARTESIAN_POINT ( 'NONE',  ( -2.000000000000001800, 0.0000000000000000000, 0.0000000000000000000 ) ) ;
#75 = CARTESIAN_POINT ( 'NONE',  ( 0.0000000000000000000, 0.0000000000000000000, -5.250000000000000000 ) ) ;
#76 = CYLINDRICAL_SURFACE ( 'NONE', #242, 10.00000000000000000 ) ;
#77 = LINE ( 'NONE', #115, #240 ) ;
#78 =( NAMED_UNIT ( * ) PLANE_ANGLE_UNIT ( ) SI_UNIT ( $, .RADIAN. ) );
#79 = ORIENTED_EDGE ( 'NONE', *, *, #194, .F. ) ;
#80 = DIRECTION ( 'NONE',  ( 0.0000000000000000000, 0.0000000000000000000, -1.000000000000000000 ) ) ;
#81 = FILL_AREA_STYLE_COLOUR ( '', #72 ) ;
#82 = VECTOR ( 'NONE', #26, 1000.000000000000000 ) ;
#83 = DIRECTION ( 'NONE',  ( -1.000000000000000000, -0.0000000000000000000, 0.0000000000000000000 ) ) ;
#84 = SHAPE_DEFINITION_REPRESENTATION ( #262, #117 ) ;
#85 = ORIENTED_EDGE ( 'NONE', *, *, #93, .T. ) ;
#86 = FACE_OUTER_BOUND ( 'NONE', #25, .T. ) ;
#87 = EDGE_CURVE ( 'NONE', #207, #238, #206, .T. ) ;
#88 = DIRECTION ( 'NONE',  ( -1.000000000000000000, -0.0000000000000000000, 0.0000000000000000000 ) ) ;
#89 = VECTOR ( 'NONE', #179, 1000.000000000000000 ) ;
#90 = CYLINDRICAL_SURFACE ( 'NONE', #110, 10.00000000000000000 ) ;
#91 = VERTEX_POINT ( 'NONE', #173 ) ;
#92 = AXIS2_PLACEMENT_3D ( 'NONE', #181, #56, #237 ) ;
#93 = EDGE_CURVE ( 'NONE', #143, #62, #135, .T. ) ;
#94 = LINE ( 'NONE', #174, #212 ) ;
#95 = DIRECTION ( 'NONE',  ( -0.7071067811865452400, 0.0000000000000000000, 0.7071067811865499000 ) ) ;
#96 = DIRECTION ( 'NONE',  ( 1.000000000000000000, 0.0000000000000000000, -0.0000000000000000000 ) ) ;
#97 = UNCERTAINTY_MEASURE_WITH_UNIT (LENGTH_MEASURE( 1.000000000000000100E-005 ), #154, 'distance_accuracy_value', 'NONE');
#98 = DIRECTION ( 'NONE',  ( -1.000000000000000000, -0.0000000000000000000, 0.0000000000000000000 ) ) ;
#99 = EDGE_LOOP ( 'NONE', ( #38, #44 ) ) ;
#100 = DIRECTION ( 'NONE',  ( 0.0000000000000000000, 0.0000000000000000000, 1.000000000000000000 ) ) ;
#101 = CARTESIAN_POINT ( 'NONE',  ( -1.192622389734054900E-015, 0.0000000000000000000, 0.0000000000000000000 ) ) ;
#102 = CIRCLE ( 'NONE', #253, 5.250000000000000000 ) ;
#103 = ADVANCED_FACE ( 'NONE', ( #9 ), #105, .T. ) ;
#104 =( NAMED_UNIT ( * ) SI_UNIT ( $, .STERADIAN. ) SOLID_ANGLE_UNIT ( ) );
#105 = CONICAL_SURFACE ( 'NONE', #31, 10.00000000000000000, 0.7853981633974516100 ) ;
#106 = EDGE_LOOP ( 'NONE', ( #114, #124, #109, #21 ) ) ;
#107 = EDGE_LOOP ( 'NONE', ( #197, #28, #85, #161 ) ) ;
#108 = EDGE_CURVE ( 'NONE', #166, #248, #223, .T. ) ;
#109 = ORIENTED_EDGE ( 'NONE', *, *, #3, .T. ) ;
#110 = AXIS2_PLACEMENT_3D ( 'NONE', #261, #168, #112 ) ;
#111 = SURFACE_STYLE_USAGE ( .BOTH. , #131 ) ;
#112 = DIRECTION ( 'NONE',  ( 0.0000000000000000000, 0.0000000000000000000, -1.000000000000000000 ) ) ;
#113 = FACE_BOUND ( 'NONE', #178, .T. ) ;
#114 = ORIENTED_EDGE ( 'NONE', *, *, #118, .T. ) ;
#115 = CARTESIAN_POINT ( 'NONE',  ( -0.5000000000000000000, 1.224646799147353300E-015, -10.00000000000000000 ) ) ;
#116 = CARTESIAN_POINT ( 'NONE',  ( -0.5000000000000000000, 0.0000000000000000000, 0.0000000000000000000 ) ) ;
#117 = ADVANCED_BREP_SHAPE_REPRESENTATION ( '7250740_CNAJF00', ( #20, #258 ), #228 ) ;
#118 = EDGE_CURVE ( 'NONE', #156, #91, #186, .T. ) ;
#119 = CIRCLE ( 'NONE', #24, 9.499999999999998200 ) ;
#120 = CARTESIAN_POINT ( 'NONE',  ( -1.192622389734054900E-015, 0.0000000000000000000, 9.499999999999998200 ) ) ;
#121 = CARTESIAN_POINT ( 'NONE',  ( -0.5000000000000004400, 0.0000000000000000000, 10.00000000000000000 ) ) ;
#122 = DIRECTION ( 'NONE',  ( 0.0000000000000000000, 0.0000000000000000000, -1.000000000000000000 ) ) ;
#123 = ADVANCED_FACE ( 'NONE', ( #16 ), #41, .F. ) ;
#124 = ORIENTED_EDGE ( 'NONE', *, *, #194, .T. ) ;
#125 = UNCERTAINTY_MEASURE_WITH_UNIT (LENGTH_MEASURE( 1.000000000000000100E-005 ), #146, 'distance_accuracy_value', 'NONE');
#126 = APPLICATION_CONTEXT ( 'automotive_design' ) ;
#127 = AXIS2_PLACEMENT_3D ( 'NONE', #232, #98, #246 ) ;
#128 = ADVANCED_FACE ( 'NONE', ( #86 ), #63, .T. ) ;
#129 = VECTOR ( 'NONE', #96, 1000.000000000000000 ) ;
#130 = AXIS2_PLACEMENT_3D ( 'NONE', #188, #88, #210 ) ;
#131 = SURFACE_SIDE_STYLE ('',( #245 ) ) ;
#132 = FACE_OUTER_BOUND ( 'NONE', #106, .T. ) ;
#133 = CLOSED_SHELL ( 'NONE', ( #55, #40, #103, #12, #123, #203, #198, #128 ) ) ;
#134 = DIRECTION ( 'NONE',  ( 1.000000000000000000, 0.0000000000000000000, -0.0000000000000000000 ) ) ;
#135 = LINE ( 'NONE', #150, #82 ) ;
#136 = CARTESIAN_POINT ( 'NONE',  ( -1.192622389734054900E-015, 1.194030629168669300E-015, -9.499999999999998200 ) ) ;
#137 = STYLED_ITEM ( 'NONE', ( #165 ), #117 ) ;
#138 = FILL_AREA_STYLE ('',( #81 ) ) ;
#139 = DIRECTION ( 'NONE',  ( 1.000000000000000000, 0.0000000000000000000, -0.0000000000000000000 ) ) ;
#140 = MECHANICAL_DESIGN_GEOMETRIC_PRESENTATION_REPRESENTATION (  '', ( #137 ), #225 ) ;
#141 = CYLINDRICAL_SURFACE ( 'NONE', #219, 5.250000000000000000 ) ;
#142 = APPLICATION_PROTOCOL_DEFINITION ( 'draft international standard', 'automotive_design', 1998, #126 ) ;
#143 = VERTEX_POINT ( 'NONE', #48 ) ;
#144 = EDGE_LOOP ( 'NONE', ( #79, #241, #153, #257 ) ) ;
#145 = AXIS2_PLACEMENT_3D ( 'NONE', #149, #209, #231 ) ;
#146 =( LENGTH_UNIT ( ) NAMED_UNIT ( * ) SI_UNIT ( .MILLI., .METRE. ) );
#147 = ORIENTED_EDGE ( 'NONE', *, *, #50, .F. ) ;
#148 = PRODUCT_DEFINITION_FORMATION_WITH_SPECIFIED_SOURCE ( 'ANY', '', #205, .NOT_KNOWN. ) ;
#149 = CARTESIAN_POINT ( 'NONE',  ( -1.192622389734054900E-015, 0.0000000000000000000, 0.0000000000000000000 ) ) ;
#150 = CARTESIAN_POINT ( 'NONE',  ( -34.92499999999999700, 0.0000000000000000000, -5.250000000000000000 ) ) ;
#151 = DIRECTION ( 'NONE',  ( -1.000000000000000000, 0.0000000000000000000, 0.0000000000000000000 ) ) ;
#152 = DIRECTION ( 'NONE',  ( 0.0000000000000000000, 0.0000000000000000000, -1.000000000000000000 ) ) ;
#153 = ORIENTED_EDGE ( 'NONE', *, *, #171, .T. ) ;
#154 =( LENGTH_UNIT ( ) NAMED_UNIT ( * ) SI_UNIT ( .MILLI., .METRE. ) );
#155 = DIRECTION ( 'NONE',  ( -1.000000000000000000, -0.0000000000000000000, 0.0000000000000000000 ) ) ;
#156 = VERTEX_POINT ( 'NONE', #215 ) ;
#157 = CARTESIAN_POINT ( 'NONE',  ( 0.0000000000000000000, 6.429395695523604200E-016, 5.250000000000000000 ) ) ;
#158 = ORIENTED_EDGE ( 'NONE', *, *, #50, .T. ) ;
#159 = CARTESIAN_POINT ( 'NONE',  ( 0.0000000000000000000, 0.0000000000000000000, 0.0000000000000000000 ) ) ;
#160 = APPLICATION_PROTOCOL_DEFINITION ( 'draft international standard', 'automotive_design', 1998, #14 ) ;
#161 = ORIENTED_EDGE ( 'NONE', *, *, #250, .F. ) ;
#162 = AXIS2_PLACEMENT_3D ( 'NONE', #218, #83, #80 ) ;
#163 = ORIENTED_EDGE ( 'NONE', *, *, #250, .T. ) ;
#164 = ORIENTED_EDGE ( 'NONE', *, *, #167, .F. ) ;
#165 = PRESENTATION_STYLE_ASSIGNMENT (( #239 ) ) ;
#166 = VERTEX_POINT ( 'NONE', #170 ) ;
#167 = EDGE_CURVE ( 'NONE', #62, #238, #19, .T. ) ;
#168 = DIRECTION ( 'NONE',  ( 1.000000000000000000, 0.0000000000000000000, -0.0000000000000000000 ) ) ;
#169 = VERTEX_POINT ( 'NONE', #120 ) ;
#170 = CARTESIAN_POINT ( 'NONE',  ( -0.5000000000000004400, 1.224646799147353300E-015, -10.00000000000000000 ) ) ;
#171 = EDGE_CURVE ( 'NONE', #156, #166, #183, .T. ) ;
#172 = CARTESIAN_POINT ( 'NONE',  ( -34.92499999999999700, 0.0000000000000000000, 0.0000000000000000000 ) ) ;
#173 = CARTESIAN_POINT ( 'NONE',  ( -2.000000000000001800, 1.224646799147353300E-015, 10.00000000000000000 ) ) ;
#174 = CARTESIAN_POINT ( 'NONE',  ( -0.5000000000000000000, 0.0000000000000000000, 10.00000000000000000 ) ) ;
#175 = DIRECTION ( 'NONE',  ( 0.0000000000000000000, 0.0000000000000000000, -1.000000000000000000 ) ) ;
#176 = PRESENTATION_LAYER_ASSIGNMENT (  '', '', ( #137 ) ) ;
#177 = CARTESIAN_POINT ( 'NONE',  ( 0.0000000000000000000, 5.250000000000000000, 0.0000000000000000000 ) ) ;
#178 = EDGE_LOOP ( 'NONE', ( #54, #260 ) ) ;
#179 = DIRECTION ( 'NONE',  ( 1.000000000000000000, 0.0000000000000000000, -0.0000000000000000000 ) ) ;
#180 = DIRECTION ( 'NONE',  ( -1.000000000000000000, 0.0000000000000000000, 0.0000000000000000000 ) ) ;
#181 = CARTESIAN_POINT ( 'NONE',  ( 0.0000000000000000000, 0.0000000000000000000, 0.0000000000000000000 ) ) ;
#182 = AXIS2_PLACEMENT_3D ( 'NONE', #42, #70, #43 ) ;
#183 = LINE ( 'NONE', #193, #226 ) ;
#184 = CIRCLE ( 'NONE', #182, 10.00000000000000000 ) ;
#185 = ORIENTED_EDGE ( 'NONE', *, *, #236, .F. ) ;
#186 = CIRCLE ( 'NONE', #233, 10.00000000000000000 ) ;
#187 = CARTESIAN_POINT ( 'NONE',  ( -2.000000000000001800, 0.0000000000000000000, 0.0000000000000000000 ) ) ;
#188 = CARTESIAN_POINT ( 'NONE',  ( -0.5000000000000004400, 0.0000000000000000000, 0.0000000000000000000 ) ) ;
#189 = ORIENTED_EDGE ( 'NONE', *, *, #167, .T. ) ;
#190 = ORIENTED_EDGE ( 'NONE', *, *, #68, .T. ) ;
#191 = CARTESIAN_POINT ( 'NONE',  ( -2.000000000000000000, 10.00000000000000000, 0.0000000000000000000 ) ) ;
#192 = CIRCLE ( 'NONE', #145, 9.499999999999998200 ) ;
#193 = CARTESIAN_POINT ( 'NONE',  ( -34.92499999999999700, 0.0000000000000000000, -10.00000000000000000 ) ) ;
#194 = EDGE_CURVE ( 'NONE', #91, #248, #234, .T. ) ;
#195 = AXIS2_PLACEMENT_3D ( 'NONE', #191, #2, #227 ) ;
#196 = PRESENTATION_STYLE_ASSIGNMENT (( #111 ) ) ;
#197 = ORIENTED_EDGE ( 'NONE', *, *, #87, .F. ) ;
#198 = ADVANCED_FACE ( 'NONE', ( #57, #37 ), #200, .F. ) ;
#199 = CARTESIAN_POINT ( 'NONE',  ( -34.92499999999999700, 0.0000000000000000000, 0.0000000000000000000 ) ) ;
#200 = PLANE ( 'NONE',  #65 ) ;
#201 = ORIENTED_EDGE ( 'NONE', *, *, #32, .F. ) ;
#202 = PRODUCT_DEFINITION ( 'UNKNOWN', '', #148, #22 ) ;
#203 = ADVANCED_FACE ( 'NONE', ( #256 ), #76, .T. ) ;
#204 = AXIS2_PLACEMENT_3D ( 'NONE', #116, #151, #45 ) ;
#205 = PRODUCT ( '7250740_CNAJF00', '7250740_CNAJF00', '', ( #58 ) ) ;
#206 = LINE ( 'NONE', #27, #129 ) ;
#207 = VERTEX_POINT ( 'NONE', #51 ) ;
#208 = STYLED_ITEM ( 'NONE', ( #196 ), #20 ) ;
#209 = DIRECTION ( 'NONE',  ( -1.000000000000000000, 0.0000000000000000000, 0.0000000000000000000 ) ) ;
#210 = DIRECTION ( 'NONE',  ( 0.0000000000000000000, 0.0000000000000000000, -1.000000000000000000 ) ) ;
#211 =( GEOMETRIC_REPRESENTATION_CONTEXT ( 3 ) GLOBAL_UNCERTAINTY_ASSIGNED_CONTEXT ( ( #125 ) ) GLOBAL_UNIT_ASSIGNED_CONTEXT ( ( #146, #67, #263 ) ) REPRESENTATION_CONTEXT ( 'NONE', 'WORKASPACE' ) );
#212 = VECTOR ( 'NONE', #95, 1000.000000000000100 ) ;
#213 = FILL_AREA_STYLE ('',( #23 ) ) ;
#214 = DIRECTION ( 'NONE',  ( -0.7071067811865452400, 8.659560562354961200E-017, -0.7071067811865499000 ) ) ;
#215 = CARTESIAN_POINT ( 'NONE',  ( -2.000000000000001800, 0.0000000000000000000, -10.00000000000000000 ) ) ;
#216 = ORIENTED_EDGE ( 'NONE', *, *, #32, .T. ) ;
#217 = EDGE_LOOP ( 'NONE', ( #201, #185 ) ) ;
#218 = CARTESIAN_POINT ( 'NONE',  ( -2.000000000000001800, 0.0000000000000000000, 0.0000000000000000000 ) ) ;
#219 = AXIS2_PLACEMENT_3D ( 'NONE', #49, #47, #152 ) ;
#220 = SURFACE_STYLE_FILL_AREA ( #138 ) ;
#221 = EDGE_CURVE ( 'NONE', #143, #207, #229, .T. ) ;
#222 = CIRCLE ( 'NONE', #92, 5.250000000000000000 ) ;
#223 = CIRCLE ( 'NONE', #127, 10.00000000000000000 ) ;
#224 = ORIENTED_EDGE ( 'NONE', *, *, #108, .F. ) ;
#225 =( GEOMETRIC_REPRESENTATION_CONTEXT ( 3 ) GLOBAL_UNCERTAINTY_ASSIGNED_CONTEXT ( ( #97 ) ) GLOBAL_UNIT_ASSIGNED_CONTEXT ( ( #154, #78, #30 ) ) REPRESENTATION_CONTEXT ( 'NONE', 'WORKASPACE' ) );
#226 = VECTOR ( 'NONE', #139, 1000.000000000000000 ) ;
#227 = DIRECTION ( 'NONE',  ( 0.0000000000000000000, 0.0000000000000000000, -1.000000000000000000 ) ) ;
#228 =( GEOMETRIC_REPRESENTATION_CONTEXT ( 3 ) GLOBAL_UNCERTAINTY_ASSIGNED_CONTEXT ( ( #259 ) ) GLOBAL_UNIT_ASSIGNED_CONTEXT ( ( #249, #34, #104 ) ) REPRESENTATION_CONTEXT ( 'NONE', 'WORKASPACE' ) );
#229 = CIRCLE ( 'NONE', #162, 5.250000000000000000 ) ;
#230 = CIRCLE ( 'NONE', #130, 10.00000000000000000 ) ;
#231 = DIRECTION ( 'NONE',  ( 0.0000000000000000000, 0.0000000000000000000, 1.000000000000000000 ) ) ;
#232 = CARTESIAN_POINT ( 'NONE',  ( -0.5000000000000004400, 0.0000000000000000000, 0.0000000000000000000 ) ) ;
#233 = AXIS2_PLACEMENT_3D ( 'NONE', #74, #73, #247 ) ;
#234 = LINE ( 'NONE', #71, #89 ) ;
#235 = DIRECTION ( 'NONE',  ( -1.000000000000000000, 0.0000000000000000000, 0.0000000000000000000 ) ) ;
#236 = EDGE_CURVE ( 'NONE', #61, #169, #119, .T. ) ;
#237 = DIRECTION ( 'NONE',  ( 0.0000000000000000000, 0.0000000000000000000, -1.000000000000000000 ) ) ;
#238 = VERTEX_POINT ( 'NONE', #157 ) ;
#239 = SURFACE_STYLE_USAGE ( .BOTH. , #8 ) ;
#240 = VECTOR ( 'NONE', #214, 1000.000000000000100 ) ;
#241 = ORIENTED_EDGE ( 'NONE', *, *, #18, .T. ) ;
#242 = AXIS2_PLACEMENT_3D ( 'NONE', #199, #10, #122 ) ;
#243 = ORIENTED_EDGE ( 'NONE', *, *, #68, .F. ) ;
#244 = COLOUR_RGB ( '',0.8745098039215686300, 0.9137254901960784000, 1.000000000000000000 ) ;
#245 = SURFACE_STYLE_FILL_AREA ( #213 ) ;
#246 = DIRECTION ( 'NONE',  ( 0.0000000000000000000, 0.0000000000000000000, -1.000000000000000000 ) ) ;
#247 = DIRECTION ( 'NONE',  ( 0.0000000000000000000, 0.0000000000000000000, -1.000000000000000000 ) ) ;
#248 = VERTEX_POINT ( 'NONE', #121 ) ;
#249 =( LENGTH_UNIT ( ) NAMED_UNIT ( * ) SI_UNIT ( .MILLI., .METRE. ) );
#250 = EDGE_CURVE ( 'NONE', #238, #62, #222, .T. ) ;
#251 = DIRECTION ( 'NONE',  ( -1.000000000000000000, 0.0000000000000000000, 0.0000000000000000000 ) ) ;
#252 = ORIENTED_EDGE ( 'NONE', *, *, #87, .T. ) ;
#253 = AXIS2_PLACEMENT_3D ( 'NONE', #187, #64, #175 ) ;
#254 = DIRECTION ( 'NONE',  ( 0.0000000000000000000, 0.0000000000000000000, 1.000000000000000000 ) ) ;
#255 = ORIENTED_EDGE ( 'NONE', *, *, #3, .F. ) ;
#256 = FACE_OUTER_BOUND ( 'NONE', #144, .T. ) ;
#257 = ORIENTED_EDGE ( 'NONE', *, *, #108, .T. ) ;
#258 = AXIS2_PLACEMENT_3D ( 'NONE', #159, #254, #36 ) ;
#259 = UNCERTAINTY_MEASURE_WITH_UNIT (LENGTH_MEASURE( 1.000000000000000100E-005 ), #249, 'distance_accuracy_value', 'NONE');
#260 = ORIENTED_EDGE ( 'NONE', *, *, #39, .F. ) ;
#261 = CARTESIAN_POINT ( 'NONE',  ( -34.92499999999999700, 0.0000000000000000000, 0.0000000000000000000 ) ) ;
#262 = PRODUCT_DEFINITION_SHAPE ( 'NONE', 'NONE',  #202 ) ;
#263 =( NAMED_UNIT ( * ) SI_UNIT ( $, .STERADIAN. ) SOLID_ANGLE_UNIT ( ) );
#264 = PRODUCT_RELATED_PRODUCT_CATEGORY ( 'part', '', ( #205 ) ) ;
ENDSEC;
END-ISO-10303-21;
