ISO-10303-21;
HEADER;
FILE_DESCRIPTION (( 'STEP AP214' ),
    '1' );
FILE_NAME ('7250900',
    '2019-02-01T14:21:28',
    ( '' ),
    ('JUGARD+KÜNSTNER GmbH'),
    'SwSTEP 2.0',
    'SolidWorks 2017',
    '' );
FILE_SCHEMA (( 'AUTOMOTIVE_DESIGN' ));
ENDSEC;

DATA;
#1 = VERTEX_POINT ( 'NONE', #85 ) ;
#2 = CARTESIAN_POINT ( 'NONE',  ( 3.323500000000000100, 4.070113636966228400E-016, -14.78460969082650100 ) ) ;
#3 = CARTESIAN_POINT ( 'NONE',  ( 0.0000000000000000000, 0.0000000000000000000, -4.999999999540705200 ) ) ;
#4 = CARTESIAN_POINT ( 'NONE',  ( -3.323500000000000100, 0.0000000000000000000, -6.000000000000000000 ) ) ;
#5 = ADVANCED_FACE ( 'NONE', ( #52 ), #308, .T. ) ;
#6 = CIRCLE ( 'NONE', #116, 3.323500000000000100 ) ;
#7 =( NAMED_UNIT ( * ) SI_UNIT ( $, .STERADIAN. ) SOLID_ANGLE_UNIT ( ) );
#8 = DIRECTION ( 'NONE',  ( 1.000000000000000000, 0.0000000000000000000, 0.0000000000000000000 ) ) ;
#9 = VECTOR ( 'NONE', #30, 1000.000000000000000 ) ;
#10 = PRODUCT_DEFINITION_CONTEXT ( 'detailed design', #80, 'design' ) ;
#11 = DIRECTION ( 'NONE',  ( 0.0000000000000000000, 0.0000000000000000000, -1.000000000000000000 ) ) ;
#12 = ORIENTED_EDGE ( 'NONE', *, *, #309, .T. ) ;
#13 =( GEOMETRIC_REPRESENTATION_CONTEXT ( 3 ) GLOBAL_UNCERTAINTY_ASSIGNED_CONTEXT ( ( #228 ) ) GLOBAL_UNIT_ASSIGNED_CONTEXT ( ( #264, #46, #287 ) ) REPRESENTATION_CONTEXT ( 'NONE', 'WORKASPACE' ) );
#14 = CARTESIAN_POINT ( 'NONE',  ( 0.0000000000000000000, 0.0000000000000000000, -5.000000000000000000 ) ) ;
#15 = CARTESIAN_POINT ( 'NONE',  ( 0.0000000000000000000, 0.0000000000000000000, -14.78460969082650100 ) ) ;
#16 = VECTOR ( 'NONE', #18, 1000.000000000000000 ) ;
#17 = DIRECTION ( 'NONE',  ( -0.0000000000000000000, -0.0000000000000000000, 1.000000000000000000 ) ) ;
#18 = DIRECTION ( 'NONE',  ( -0.7071067805635348200, 0.0000000000000000000, -0.7071067818095602100 ) ) ;
#19 = AXIS2_PLACEMENT_3D ( 'NONE', #127, #230, #175 ) ;
#20 = DIRECTION ( 'NONE',  ( -0.0000000000000000000, -0.0000000000000000000, 1.000000000000000000 ) ) ;
#21 = ORIENTED_EDGE ( 'NONE', *, *, #267, .T. ) ;
#22 = EDGE_CURVE ( 'NONE', #221, #35, #146, .T. ) ;
#23 = EDGE_CURVE ( 'NONE', #148, #268, #122, .T. ) ;
#24 = VECTOR ( 'NONE', #185, 1000.000000000000000 ) ;
#25 = FILL_AREA_STYLE ('',( #292 ) ) ;
#26 = EDGE_CURVE ( 'NONE', #284, #221, #81, .T. ) ;
#27 = FACE_OUTER_BOUND ( 'NONE', #83, .T. ) ;
#28 = LINE ( 'NONE', #151, #16 ) ;
#29 = DIRECTION ( 'NONE',  ( 0.0000000000000000000, 0.0000000000000000000, -1.000000000000000000 ) ) ;
#30 = DIRECTION ( 'NONE',  ( -0.7071067805635348200, 8.659560554725228000E-017, 0.7071067818095602100 ) ) ;
#31 = FACE_OUTER_BOUND ( 'NONE', #136, .T. ) ;
#32 = CLOSED_SHELL ( 'NONE', ( #217, #270, #5, #79, #162, #194, #124, #76, #215, #48 ) ) ;
#33 = DIRECTION ( 'NONE',  ( -1.000000000000000000, 0.0000000000000000000, 0.0000000000000000000 ) ) ;
#34 = AXIS2_PLACEMENT_3D ( 'NONE', #198, #11, #105 ) ;
#35 = VERTEX_POINT ( 'NONE', #224 ) ;
#36 = EDGE_CURVE ( 'NONE', #192, #260, #142, .T. ) ;
#37 = DIRECTION ( 'NONE',  ( 1.000000000000000000, 0.0000000000000000000, 0.0000000000000000000 ) ) ;
#38 = AXIS2_PLACEMENT_3D ( 'NONE', #15, #65, #281 ) ;
#39 = DIRECTION ( 'NONE',  ( -1.000000000000000000, 0.0000000000000000000, 0.0000000000000000000 ) ) ;
#40 = CARTESIAN_POINT ( 'NONE',  ( 0.0000000000000000000, 0.0000000000000000000, -4.999999999540705200 ) ) ;
#41 = ORIENTED_EDGE ( 'NONE', *, *, #274, .F. ) ;
#42 = EDGE_LOOP ( 'NONE', ( #110, #250 ) ) ;
#43 = MECHANICAL_DESIGN_GEOMETRIC_PRESENTATION_REPRESENTATION (  '', ( #211 ), #218 ) ;
#44 = CYLINDRICAL_SURFACE ( 'NONE', #91, 6.000000000000000000 ) ;
#45 = EDGE_CURVE ( 'NONE', #113, #49, #181, .T. ) ;
#46 =( NAMED_UNIT ( * ) PLANE_ANGLE_UNIT ( ) SI_UNIT ( $, .RADIAN. ) );
#47 = CARTESIAN_POINT ( 'NONE',  ( 0.0000000000000000000, 0.0000000000000000000, 6.000000000426553000 ) ) ;
#48 = ADVANCED_FACE ( 'NONE', ( #298 ), #249, .F. ) ;
#49 = VERTEX_POINT ( 'NONE', #82 ) ;
#50 = AXIS2_PLACEMENT_3D ( 'NONE', #58, #130, #33 ) ;
#51 = ORIENTED_EDGE ( 'NONE', *, *, #22, .T. ) ;
#52 = FACE_OUTER_BOUND ( 'NONE', #203, .T. ) ;
#53 = AXIS2_PLACEMENT_3D ( 'NONE', #179, #205, #62 ) ;
#54 = APPLICATION_PROTOCOL_DEFINITION ( 'draft international standard', 'automotive_design', 1998, #80 ) ;
#55 = AXIS2_PLACEMENT_3D ( 'NONE', #161, #29, #118 ) ;
#56 = VECTOR ( 'NONE', #279, 1000.000000000000000 ) ;
#57 = DIRECTION ( 'NONE',  ( -0.0000000000000000000, -0.0000000000000000000, 1.000000000000000000 ) ) ;
#58 = CARTESIAN_POINT ( 'NONE',  ( 0.0000000000000000000, 0.0000000000000000000, -6.000000000000000000 ) ) ;
#59 = AXIS2_PLACEMENT_3D ( 'NONE', #87, #61, #310 ) ;
#60 = FACE_OUTER_BOUND ( 'NONE', #257, .T. ) ;
#61 = DIRECTION ( 'NONE',  ( -0.0000000000000000000, -0.0000000000000000000, 1.000000000000000000 ) ) ;
#62 = DIRECTION ( 'NONE',  ( -1.000000000000000000, 0.0000000000000000000, 0.0000000000000000000 ) ) ;
#63 = ORIENTED_EDGE ( 'NONE', *, *, #93, .T. ) ;
#64 = DIRECTION ( 'NONE',  ( -1.000000000000000000, 0.0000000000000000000, 0.0000000000000000000 ) ) ;
#65 = DIRECTION ( 'NONE',  ( 0.0000000000000000000, 0.0000000000000000000, -1.000000000000000000 ) ) ;
#66 = AXIS2_PLACEMENT_3D ( 'NONE', #174, #20, #39 ) ;
#67 = CARTESIAN_POINT ( 'NONE',  ( 0.0000000000000000000, 0.0000000000000000000, 6.000000000000001800 ) ) ;
#68 = CARTESIAN_POINT ( 'NONE',  ( 0.0000000000000000000, 0.0000000000000000000, 6.000000000000000000 ) ) ;
#69 = VERTEX_POINT ( 'NONE', #299 ) ;
#70 = FACE_OUTER_BOUND ( 'NONE', #114, .T. ) ;
#71 = EDGE_CURVE ( 'NONE', #1, #69, #6, .T. ) ;
#72 = DIRECTION ( 'NONE',  ( 1.000000000000000000, 0.0000000000000000000, 0.0000000000000000000 ) ) ;
#73 = ORIENTED_EDGE ( 'NONE', *, *, #309, .F. ) ;
#74 = DIRECTION ( 'NONE',  ( 0.0000000000000000000, 0.0000000000000000000, -1.000000000000000000 ) ) ;
#75 = ORIENTED_EDGE ( 'NONE', *, *, #36, .F. ) ;
#76 = ADVANCED_FACE ( 'NONE', ( #213, #60 ), #247, .T. ) ;
#77 = AXIS2_PLACEMENT_3D ( 'NONE', #149, #172, #37 ) ;
#78 = CARTESIAN_POINT ( 'NONE',  ( 0.0000000000000000000, 0.0000000000000000000, 0.0000000000000000000 ) ) ;
#79 = ADVANCED_FACE ( 'NONE', ( #170 ), #132, .F. ) ;
#80 = APPLICATION_CONTEXT ( 'automotive_design' ) ;
#81 = LINE ( 'NONE', #200, #184 ) ;
#82 = CARTESIAN_POINT ( 'NONE',  ( -5.000000000393356500, 0.0000000000000000000, 6.000000000426553000 ) ) ;
#83 = EDGE_LOOP ( 'NONE', ( #208, #97 ) ) ;
#84 = ORIENTED_EDGE ( 'NONE', *, *, #248, .T. ) ;
#85 = CARTESIAN_POINT ( 'NONE',  ( 3.323500000000000100, 4.070113636966228400E-016, 6.000000000000001800 ) ) ;
#86 = LINE ( 'NONE', #253, #107 ) ;
#87 = CARTESIAN_POINT ( 'NONE',  ( 0.0000000000000000000, 0.0000000000000000000, -6.000000000000000000 ) ) ;
#88 = DIRECTION ( 'NONE',  ( -0.0000000000000000000, 0.0000000000000000000, 1.000000000000000000 ) ) ;
#89 = CONICAL_SURFACE ( 'NONE', #144, 5.999999999517058300, 0.7853981625163752900 ) ;
#90 = ORIENTED_EDGE ( 'NONE', *, *, #304, .T. ) ;
#91 = AXIS2_PLACEMENT_3D ( 'NONE', #78, #74, #237 ) ;
#92 = LINE ( 'NONE', #212, #9 ) ;
#93 = EDGE_CURVE ( 'NONE', #35, #221, #240, .T. ) ;
#94 = ORIENTED_EDGE ( 'NONE', *, *, #99, .T. ) ;
#95 = FILL_AREA_STYLE ('',( #187 ) ) ;
#96 = DIRECTION ( 'NONE',  ( 0.0000000000000000000, 0.0000000000000000000, -1.000000000000000000 ) ) ;
#97 = ORIENTED_EDGE ( 'NONE', *, *, #45, .F. ) ;
#98 = ORIENTED_EDGE ( 'NONE', *, *, #45, .T. ) ;
#99 = EDGE_CURVE ( 'NONE', #49, #284, #28, .T. ) ;
#100 = SURFACE_STYLE_USAGE ( .BOTH. , #191 ) ;
#101 =( LENGTH_UNIT ( ) NAMED_UNIT ( * ) SI_UNIT ( .MILLI., .METRE. ) );
#102 = PRESENTATION_STYLE_ASSIGNMENT (( #165 ) ) ;
#103 = ORIENTED_EDGE ( 'NONE', *, *, #26, .T. ) ;
#104 =( NAMED_UNIT ( * ) PLANE_ANGLE_UNIT ( ) SI_UNIT ( $, .RADIAN. ) );
#105 = DIRECTION ( 'NONE',  ( -1.000000000000000000, 0.0000000000000000000, 0.0000000000000000000 ) ) ;
#106 = AXIS2_PLACEMENT_3D ( 'NONE', #261, #199, #8 ) ;
#107 = VECTOR ( 'NONE', #254, 1000.000000000000000 ) ;
#108 = FACE_BOUND ( 'NONE', #231, .T. ) ;
#109 = ORIENTED_EDGE ( 'NONE', *, *, #239, .T. ) ;
#110 = ORIENTED_EDGE ( 'NONE', *, *, #186, .T. ) ;
#111 = DIRECTION ( 'NONE',  ( 1.000000000000000000, 0.0000000000000000000, 0.0000000000000000000 ) ) ;
#112 = AXIS2_PLACEMENT_3D ( 'NONE', #206, #152, #255 ) ;
#113 = VERTEX_POINT ( 'NONE', #135 ) ;
#114 = EDGE_LOOP ( 'NONE', ( #289, #98, #94, #154 ) ) ;
#115 = SHAPE_DEFINITION_REPRESENTATION ( #176, #285 ) ;
#116 = AXIS2_PLACEMENT_3D ( 'NONE', #67, #17, #64 ) ;
#117 = ORIENTED_EDGE ( 'NONE', *, *, #147, .T. ) ;
#118 = DIRECTION ( 'NONE',  ( -1.000000000000000000, 0.0000000000000000000, 0.0000000000000000000 ) ) ;
#119 = CARTESIAN_POINT ( 'NONE',  ( -5.000000000393356500, 6.735557394974350800E-016, -6.000000000426553000 ) ) ;
#120 = EDGE_CURVE ( 'NONE', #69, #1, #313, .T. ) ;
#121 = CARTESIAN_POINT ( 'NONE',  ( 0.0000000000000000000, 0.0000000000000000000, 5.000000000000000000 ) ) ;
#122 = CIRCLE ( 'NONE', #50, 3.323500000000000100 ) ;
#123 = PRODUCT_DEFINITION ( 'UNKNOWN', '', #134, #10 ) ;
#124 = ADVANCED_FACE ( 'NONE', ( #70 ), #276, .T. ) ;
#125 = COLOUR_RGB ( '',0.7529411764705882200, 0.7529411764705882200, 0.7529411764705882200 ) ;
#126 = ORIENTED_EDGE ( 'NONE', *, *, #186, .F. ) ;
#127 = CARTESIAN_POINT ( 'NONE',  ( 0.0000000000000000000, 0.0000000000000000000, -6.000000000000000000 ) ) ;
#128 = AXIS2_PLACEMENT_3D ( 'NONE', #150, #282, #227 ) ;
#129 = UNCERTAINTY_MEASURE_WITH_UNIT (LENGTH_MEASURE( 1.000000000000000100E-005 ), #101, 'distance_accuracy_value', 'NONE');
#130 = DIRECTION ( 'NONE',  ( -0.0000000000000000000, -0.0000000000000000000, 1.000000000000000000 ) ) ;
#131 = ORIENTED_EDGE ( 'NONE', *, *, #23, .F. ) ;
#132 = CYLINDRICAL_SURFACE ( 'NONE', #38, 3.323500000000000100 ) ;
#133 = CARTESIAN_POINT ( 'NONE',  ( 5.999999999057763500, 7.347880793730212500E-016, 5.000000000000000000 ) ) ;
#134 = PRODUCT_DEFINITION_FORMATION_WITH_SPECIFIED_SOURCE ( 'ANY', '', #140, .NOT_KNOWN. ) ;
#135 = CARTESIAN_POINT ( 'NONE',  ( 5.000000000393356500, 6.735557394974350800E-016, 6.000000000426553000 ) ) ;
#136 = EDGE_LOOP ( 'NONE', ( #197, #84, #156, #139 ) ) ;
#137 = ORIENTED_EDGE ( 'NONE', *, *, #120, .T. ) ;
#138 = PRODUCT_RELATED_PRODUCT_CATEGORY ( 'part', '', ( #140 ) ) ;
#139 = ORIENTED_EDGE ( 'NONE', *, *, #22, .F. ) ;
#140 = PRODUCT ( '7250900_CNAJF00', '7250900_CNAJF00', '', ( #195 ) ) ;
#141 = APPLICATION_PROTOCOL_DEFINITION ( 'draft international standard', 'automotive_design', 1998, #234 ) ;
#142 = CIRCLE ( 'NONE', #77, 5.000000000393356500 ) ;
#143 = DIRECTION ( 'NONE',  ( -0.0000000000000000000, 0.0000000000000000000, 1.000000000000000000 ) ) ;
#144 = AXIS2_PLACEMENT_3D ( 'NONE', #40, #88, #111 ) ;
#145 = CIRCLE ( 'NONE', #222, 5.000000000393356500 ) ;
#146 = CIRCLE ( 'NONE', #252, 6.000000000000000000 ) ;
#147 = EDGE_CURVE ( 'NONE', #163, #35, #246, .T. ) ;
#148 = VERTEX_POINT ( 'NONE', #305 ) ;
#149 = CARTESIAN_POINT ( 'NONE',  ( 0.0000000000000000000, 0.0000000000000000000, -6.000000000426553000 ) ) ;
#150 = CARTESIAN_POINT ( 'NONE',  ( 0.0000000000000000000, 0.0000000000000000000, 0.0000000000000000000 ) ) ;
#151 = CARTESIAN_POINT ( 'NONE',  ( -5.999999999517058300, 0.0000000000000000000, 4.999999999540705200 ) ) ;
#152 = DIRECTION ( 'NONE',  ( -0.0000000000000000000, -0.0000000000000000000, 1.000000000000000000 ) ) ;
#153 = LINE ( 'NONE', #2, #202 ) ;
#154 = ORIENTED_EDGE ( 'NONE', *, *, #239, .F. ) ;
#155 = PLANE ( 'NONE',  #233 ) ;
#156 = ORIENTED_EDGE ( 'NONE', *, *, #180, .T. ) ;
#157 = CARTESIAN_POINT ( 'NONE',  ( -5.999999999057763500, 7.347880793730212500E-016, -5.000000000000000000 ) ) ;
#158 = SURFACE_STYLE_FILL_AREA ( #95 ) ;
#159 = ORIENTED_EDGE ( 'NONE', *, *, #201, .T. ) ;
#160 = DIRECTION ( 'NONE',  ( -0.0000000000000000000, 0.0000000000000000000, 1.000000000000000000 ) ) ;
#161 = CARTESIAN_POINT ( 'NONE',  ( 0.0000000000000000000, 0.0000000000000000000, 5.000000000000000000 ) ) ;
#162 = ADVANCED_FACE ( 'NONE', ( #183 ), #220, .T. ) ;
#163 = VERTEX_POINT ( 'NONE', #133 ) ;
#164 = SURFACE_SIDE_STYLE ('',( #158 ) ) ;
#165 = SURFACE_STYLE_USAGE ( .BOTH. , #164 ) ;
#166 = DIRECTION ( 'NONE',  ( -1.000000000000000000, 0.0000000000000000000, -0.0000000000000000000 ) ) ;
#167 = EDGE_LOOP ( 'NONE', ( #137, #277, #126, #291 ) ) ;
#168 = DIRECTION ( 'NONE',  ( -1.000000000000000000, 0.0000000000000000000, 0.0000000000000000000 ) ) ;
#169 = AXIS2_PLACEMENT_3D ( 'NONE', #121, #96, #263 ) ;
#170 = FACE_OUTER_BOUND ( 'NONE', #167, .T. ) ;
#171 = ORIENTED_EDGE ( 'NONE', *, *, #36, .T. ) ;
#172 = DIRECTION ( 'NONE',  ( -0.0000000000000000000, 0.0000000000000000000, 1.000000000000000000 ) ) ;
#173 = UNCERTAINTY_MEASURE_WITH_UNIT (LENGTH_MEASURE( 1.000000000000000100E-005 ), #273, 'distance_accuracy_value', 'NONE');
#174 = CARTESIAN_POINT ( 'NONE',  ( 0.0000000000000000000, 0.0000000000000000000, -5.000000000000000000 ) ) ;
#175 = DIRECTION ( 'NONE',  ( -1.000000000000000000, 0.0000000000000000000, -0.0000000000000000000 ) ) ;
#176 = PRODUCT_DEFINITION_SHAPE ( 'NONE', 'NONE',  #123 ) ;
#177 = CIRCLE ( 'NONE', #59, 3.323500000000000100 ) ;
#178 = ORIENTED_EDGE ( 'NONE', *, *, #71, .F. ) ;
#179 = CARTESIAN_POINT ( 'NONE',  ( 0.0000000000000000000, 0.0000000000000000000, 4.999999999540705200 ) ) ;
#180 = EDGE_CURVE ( 'NONE', #192, #35, #86, .T. ) ;
#181 = CIRCLE ( 'NONE', #209, 5.000000000393356500 ) ;
#182 = MECHANICAL_DESIGN_GEOMETRIC_PRESENTATION_REPRESENTATION (  '', ( #306 ), #311 ) ;
#183 = FACE_OUTER_BOUND ( 'NONE', #236, .T. ) ;
#184 = VECTOR ( 'NONE', #297, 1000.000000000000000 ) ;
#185 = DIRECTION ( 'NONE',  ( 0.0000000000000000000, 0.0000000000000000000, -1.000000000000000000 ) ) ;
#186 = EDGE_CURVE ( 'NONE', #268, #148, #177, .T. ) ;
#187 = FILL_AREA_STYLE_COLOUR ( '', #125 ) ;
#188 = DIRECTION ( 'NONE',  ( 0.7071067805635348200, 8.659560554725228000E-017, -0.7071067818095602100 ) ) ;
#189 = DIRECTION ( 'NONE',  ( 0.0000000000000000000, 0.0000000000000000000, -1.000000000000000000 ) ) ;
#190 = AXIS2_PLACEMENT_3D ( 'NONE', #295, #143, #72 ) ;
#191 = SURFACE_SIDE_STYLE ('',( #259 ) ) ;
#192 = VERTEX_POINT ( 'NONE', #226 ) ;
#193 = CARTESIAN_POINT ( 'NONE',  ( -3.323500000000000100, 0.0000000000000000000, -14.78460969082650100 ) ) ;
#194 = ADVANCED_FACE ( 'NONE', ( #31 ), #89, .T. ) ;
#195 = PRODUCT_CONTEXT ( 'NONE', #234, 'mechanical' ) ;
#196 = LINE ( 'NONE', #193, #24 ) ;
#197 = ORIENTED_EDGE ( 'NONE', *, *, #256, .F. ) ;
#198 = CARTESIAN_POINT ( 'NONE',  ( 0.0000000000000000000, 0.0000000000000000000, -14.78460969082650100 ) ) ;
#199 = DIRECTION ( 'NONE',  ( 0.0000000000000000000, 0.0000000000000000000, 1.000000000000000000 ) ) ;
#200 = CARTESIAN_POINT ( 'NONE',  ( -6.000000000000000000, 0.0000000000000000000, 0.0000000000000000000 ) ) ;
#201 = EDGE_CURVE ( 'NONE', #49, #113, #145, .T. ) ;
#202 = VECTOR ( 'NONE', #216, 1000.000000000000000 ) ;
#203 = EDGE_LOOP ( 'NONE', ( #159, #21, #73, #219 ) ) ;
#204 = DIRECTION ( 'NONE',  ( -1.000000000000000000, 0.0000000000000000000, 0.0000000000000000000 ) ) ;
#205 = DIRECTION ( 'NONE',  ( 0.0000000000000000000, 0.0000000000000000000, -1.000000000000000000 ) ) ;
#206 = CARTESIAN_POINT ( 'NONE',  ( 0.0000000000000000000, 0.0000000000000000000, 6.000000000000001800 ) ) ;
#207 = CONICAL_SURFACE ( 'NONE', #293, 5.999999999517058300, 0.7853981625163752900 ) ;
#208 = ORIENTED_EDGE ( 'NONE', *, *, #201, .F. ) ;
#209 = AXIS2_PLACEMENT_3D ( 'NONE', #300, #301, #168 ) ;
#210 = CIRCLE ( 'NONE', #55, 6.000000000000000000 ) ;
#211 = STYLED_ITEM ( 'NONE', ( #102 ), #285 ) ;
#212 = CARTESIAN_POINT ( 'NONE',  ( -5.999999999517058300, 7.347880794292686100E-016, -4.999999999540705200 ) ) ;
#213 = FACE_BOUND ( 'NONE', #42, .T. ) ;
#214 = ORIENTED_EDGE ( 'NONE', *, *, #71, .T. ) ;
#215 = ADVANCED_FACE ( 'NONE', ( #108, #27 ), #155, .F. ) ;
#216 = DIRECTION ( 'NONE',  ( 0.0000000000000000000, 0.0000000000000000000, -1.000000000000000000 ) ) ;
#217 = ADVANCED_FACE ( 'NONE', ( #288 ), #44, .T. ) ;
#218 =( GEOMETRIC_REPRESENTATION_CONTEXT ( 3 ) GLOBAL_UNCERTAINTY_ASSIGNED_CONTEXT ( ( #173 ) ) GLOBAL_UNIT_ASSIGNED_CONTEXT ( ( #273, #104, #243 ) ) REPRESENTATION_CONTEXT ( 'NONE', 'WORKASPACE' ) );
#219 = ORIENTED_EDGE ( 'NONE', *, *, #99, .F. ) ;
#220 = CYLINDRICAL_SURFACE ( 'NONE', #128, 6.000000000000000000 ) ;
#221 = VERTEX_POINT ( 'NONE', #157 ) ;
#222 = AXIS2_PLACEMENT_3D ( 'NONE', #47, #189, #238 ) ;
#223 = CARTESIAN_POINT ( 'NONE',  ( 0.0000000000000000000, 0.0000000000000000000, 4.999999999540705200 ) ) ;
#224 = CARTESIAN_POINT ( 'NONE',  ( 5.999999999057763500, 0.0000000000000000000, -5.000000000000000000 ) ) ;
#225 = LINE ( 'NONE', #290, #265 ) ;
#226 = CARTESIAN_POINT ( 'NONE',  ( 5.000000000393356500, 0.0000000000000000000, -6.000000000426553000 ) ) ;
#227 = DIRECTION ( 'NONE',  ( -1.000000000000000000, 0.0000000000000000000, 0.0000000000000000000 ) ) ;
#228 = UNCERTAINTY_MEASURE_WITH_UNIT (LENGTH_MEASURE( 1.000000000000000100E-005 ), #264, 'distance_accuracy_value', 'NONE');
#229 = ORIENTED_EDGE ( 'NONE', *, *, #180, .F. ) ;
#230 = DIRECTION ( 'NONE',  ( 0.0000000000000000000, 0.0000000000000000000, -1.000000000000000000 ) ) ;
#231 = EDGE_LOOP ( 'NONE', ( #258, #178 ) ) ;
#232 = EDGE_LOOP ( 'NONE', ( #12, #117, #63, #266 ) ) ;
#233 = AXIS2_PLACEMENT_3D ( 'NONE', #68, #245, #166 ) ;
#234 = APPLICATION_CONTEXT ( 'automotive_design' ) ;
#235 = FACE_OUTER_BOUND ( 'NONE', #303, .T. ) ;
#236 = EDGE_LOOP ( 'NONE', ( #280, #109, #103, #51 ) ) ;
#237 = DIRECTION ( 'NONE',  ( -1.000000000000000000, 0.0000000000000000000, 0.0000000000000000000 ) ) ;
#238 = DIRECTION ( 'NONE',  ( -1.000000000000000000, 0.0000000000000000000, 0.0000000000000000000 ) ) ;
#239 = EDGE_CURVE ( 'NONE', #163, #284, #244, .T. ) ;
#240 = CIRCLE ( 'NONE', #66, 6.000000000000000000 ) ;
#241 = CARTESIAN_POINT ( 'NONE',  ( -5.999999999057763500, 0.0000000000000000000, 5.000000000000000000 ) ) ;
#242 = EDGE_LOOP ( 'NONE', ( #41, #214, #90, #131 ) ) ;
#243 =( NAMED_UNIT ( * ) SI_UNIT ( $, .STERADIAN. ) SOLID_ANGLE_UNIT ( ) );
#244 = CIRCLE ( 'NONE', #169, 6.000000000000000000 ) ;
#245 = DIRECTION ( 'NONE',  ( 0.0000000000000000000, 0.0000000000000000000, -1.000000000000000000 ) ) ;
#246 = LINE ( 'NONE', #307, #56 ) ;
#247 = PLANE ( 'NONE',  #19 ) ;
#248 = EDGE_CURVE ( 'NONE', #260, #192, #286, .T. ) ;
#249 = CYLINDRICAL_SURFACE ( 'NONE', #34, 3.323500000000000100 ) ;
#250 = ORIENTED_EDGE ( 'NONE', *, *, #23, .T. ) ;
#251 = DIRECTION ( 'NONE',  ( -1.000000000000000000, 0.0000000000000000000, 0.0000000000000000000 ) ) ;
#252 = AXIS2_PLACEMENT_3D ( 'NONE', #14, #57, #204 ) ;
#253 = CARTESIAN_POINT ( 'NONE',  ( 5.999999999517058300, 0.0000000000000000000, -4.999999999540705200 ) ) ;
#254 = DIRECTION ( 'NONE',  ( 0.7071067805635348200, 0.0000000000000000000, 0.7071067818095602100 ) ) ;
#255 = DIRECTION ( 'NONE',  ( -1.000000000000000000, 0.0000000000000000000, 0.0000000000000000000 ) ) ;
#256 = EDGE_CURVE ( 'NONE', #260, #221, #92, .T. ) ;
#257 = EDGE_LOOP ( 'NONE', ( #75, #302 ) ) ;
#258 = ORIENTED_EDGE ( 'NONE', *, *, #120, .F. ) ;
#259 = SURFACE_STYLE_FILL_AREA ( #25 ) ;
#260 = VERTEX_POINT ( 'NONE', #119 ) ;
#261 = CARTESIAN_POINT ( 'NONE',  ( 0.0000000000000000000, 0.0000000000000000000, 0.0000000000000000000 ) ) ;
#262 = PRESENTATION_LAYER_ASSIGNMENT (  '', '', ( #306 ) ) ;
#263 = DIRECTION ( 'NONE',  ( -1.000000000000000000, 0.0000000000000000000, 0.0000000000000000000 ) ) ;
#264 =( LENGTH_UNIT ( ) NAMED_UNIT ( * ) SI_UNIT ( .MILLI., .METRE. ) );
#265 = VECTOR ( 'NONE', #188, 1000.000000000000000 ) ;
#266 = ORIENTED_EDGE ( 'NONE', *, *, #26, .F. ) ;
#267 = EDGE_CURVE ( 'NONE', #113, #163, #225, .T. ) ;
#268 = VERTEX_POINT ( 'NONE', #4 ) ;
#269 = DIRECTION ( 'NONE',  ( 1.000000000000000000, 0.0000000000000000000, 0.0000000000000000000 ) ) ;
#270 = ADVANCED_FACE ( 'NONE', ( #235 ), #207, .T. ) ;
#271 = PRESENTATION_LAYER_ASSIGNMENT (  '', '', ( #211 ) ) ;
#272 = COLOUR_RGB ( '',0.7529411764705882200, 0.7529411764705882200, 0.8117647058823529400 ) ;
#273 =( LENGTH_UNIT ( ) NAMED_UNIT ( * ) SI_UNIT ( .MILLI., .METRE. ) );
#274 = EDGE_CURVE ( 'NONE', #1, #148, #153, .T. ) ;
#275 = DIRECTION ( 'NONE',  ( 0.0000000000000000000, 0.0000000000000000000, -1.000000000000000000 ) ) ;
#276 = CONICAL_SURFACE ( 'NONE', #53, 5.999999999517058300, 0.7853981625163752900 ) ;
#277 = ORIENTED_EDGE ( 'NONE', *, *, #274, .T. ) ;
#278 = AXIS2_PLACEMENT_3D ( 'NONE', #223, #275, #251 ) ;
#279 = DIRECTION ( 'NONE',  ( 0.0000000000000000000, 0.0000000000000000000, -1.000000000000000000 ) ) ;
#280 = ORIENTED_EDGE ( 'NONE', *, *, #147, .F. ) ;
#281 = DIRECTION ( 'NONE',  ( -1.000000000000000000, 0.0000000000000000000, 0.0000000000000000000 ) ) ;
#282 = DIRECTION ( 'NONE',  ( 0.0000000000000000000, 0.0000000000000000000, -1.000000000000000000 ) ) ;
#283 = ORIENTED_EDGE ( 'NONE', *, *, #93, .F. ) ;
#284 = VERTEX_POINT ( 'NONE', #241 ) ;
#285 = ADVANCED_BREP_SHAPE_REPRESENTATION ( '7250900_CNAJF00', ( #312, #106 ), #13 ) ;
#286 = CIRCLE ( 'NONE', #190, 5.000000000393356500 ) ;
#287 =( NAMED_UNIT ( * ) SI_UNIT ( $, .STERADIAN. ) SOLID_ANGLE_UNIT ( ) );
#288 = FACE_OUTER_BOUND ( 'NONE', #232, .T. ) ;
#289 = ORIENTED_EDGE ( 'NONE', *, *, #267, .F. ) ;
#290 = CARTESIAN_POINT ( 'NONE',  ( 5.999999999517058300, 7.347880794292686100E-016, 4.999999999540705200 ) ) ;
#291 = ORIENTED_EDGE ( 'NONE', *, *, #304, .F. ) ;
#292 = FILL_AREA_STYLE_COLOUR ( '', #272 ) ;
#293 = AXIS2_PLACEMENT_3D ( 'NONE', #3, #160, #269 ) ;
#294 =( NAMED_UNIT ( * ) PLANE_ANGLE_UNIT ( ) SI_UNIT ( $, .RADIAN. ) );
#295 = CARTESIAN_POINT ( 'NONE',  ( 0.0000000000000000000, 0.0000000000000000000, -6.000000000426553000 ) ) ;
#296 = PRESENTATION_STYLE_ASSIGNMENT (( #100 ) ) ;
#297 = DIRECTION ( 'NONE',  ( 0.0000000000000000000, 0.0000000000000000000, -1.000000000000000000 ) ) ;
#298 = FACE_OUTER_BOUND ( 'NONE', #242, .T. ) ;
#299 = CARTESIAN_POINT ( 'NONE',  ( -3.323500000000000100, 0.0000000000000000000, 6.000000000000001800 ) ) ;
#300 = CARTESIAN_POINT ( 'NONE',  ( 0.0000000000000000000, 0.0000000000000000000, 6.000000000426553000 ) ) ;
#301 = DIRECTION ( 'NONE',  ( 0.0000000000000000000, 0.0000000000000000000, -1.000000000000000000 ) ) ;
#302 = ORIENTED_EDGE ( 'NONE', *, *, #248, .F. ) ;
#303 = EDGE_LOOP ( 'NONE', ( #171, #314, #283, #229 ) ) ;
#304 = EDGE_CURVE ( 'NONE', #69, #268, #196, .T. ) ;
#305 = CARTESIAN_POINT ( 'NONE',  ( 3.323500000000000100, 4.070113636966228400E-016, -6.000000000000000000 ) ) ;
#306 = STYLED_ITEM ( 'NONE', ( #296 ), #312 ) ;
#307 = CARTESIAN_POINT ( 'NONE',  ( 6.000000000000000000, 7.347880794884119700E-016, 0.0000000000000000000 ) ) ;
#308 = CONICAL_SURFACE ( 'NONE', #278, 5.999999999517058300, 0.7853981625163752900 ) ;
#309 = EDGE_CURVE ( 'NONE', #284, #163, #210, .T. ) ;
#310 = DIRECTION ( 'NONE',  ( -1.000000000000000000, 0.0000000000000000000, 0.0000000000000000000 ) ) ;
#311 =( GEOMETRIC_REPRESENTATION_CONTEXT ( 3 ) GLOBAL_UNCERTAINTY_ASSIGNED_CONTEXT ( ( #129 ) ) GLOBAL_UNIT_ASSIGNED_CONTEXT ( ( #101, #294, #7 ) ) REPRESENTATION_CONTEXT ( 'NONE', 'WORKASPACE' ) );
#312 = MANIFOLD_SOLID_BREP ( 'Importiert1', #32 ) ;
#313 = CIRCLE ( 'NONE', #112, 3.323500000000000100 ) ;
#314 = ORIENTED_EDGE ( 'NONE', *, *, #256, .T. ) ;
ENDSEC;
END-ISO-10303-21;
