ISO-10303-21;
HEADER;
FILE_DESCRIPTION (( 'STEP AP214' ),
    '1' );
FILE_NAME ('7251001',
    '2019-02-01T14:21:31',
    ( '' ),
    ('JUGARD+KÜNSTNER GmbH'),
    'SwSTEP 2.0',
    'SolidWorks 2017',
    '' );
FILE_SCHEMA (( 'AUTOMOTIVE_DESIGN' ));
ENDSEC;

DATA;
#1 = ORIENTED_EDGE ( 'NONE', *, *, #189, .T. ) ;
#2 = EDGE_CURVE ( 'NONE', #166, #122, #133, .T. ) ;
#3 =( LENGTH_UNIT ( ) NAMED_UNIT ( * ) SI_UNIT ( .MILLI., .METRE. ) );
#4 =( NAMED_UNIT ( * ) SI_UNIT ( $, .STERADIAN. ) SOLID_ANGLE_UNIT ( ) );
#5 = EDGE_LOOP ( 'NONE', ( #142, #231, #69, #191, #42 ) ) ;
#6 = AXIS2_PLACEMENT_3D ( 'NONE', #19, #239, #64 ) ;
#7 = EDGE_LOOP ( 'NONE', ( #200, #194 ) ) ;
#8 = ADVANCED_FACE ( 'NONE', ( #10 ), #103, .T. ) ;
#9 = CONICAL_SURFACE ( 'NONE', #32, 2.949999999886539800, 0.7853981633974482800 ) ;
#10 = FACE_OUTER_BOUND ( 'NONE', #55, .T. ) ;
#11 = FILL_AREA_STYLE ('',( #178 ) ) ;
#12 = SURFACE_STYLE_FILL_AREA ( #161 ) ;
#13 = STYLED_ITEM ( 'NONE', ( #121 ), #8 ) ;
#14 = DIRECTION ( 'NONE',  ( 7.888609052210119800E-031, -1.224646799147350000E-016, -1.000000000000000000 ) ) ;
#15 = COLOUR_RGB ( '',0.7529411764705882200, 0.7529411764705882200, 0.7529411764705882200 ) ;
#16 = COLOUR_RGB ( '',0.7529411764705882200, 0.7529411764705882200, 0.8117647058823529400 ) ;
#17 = ORIENTED_EDGE ( 'NONE', *, *, #207, .F. ) ;
#18 = APPLICATION_PROTOCOL_DEFINITION ( 'draft international standard', 'automotive_design', 1998, #144 ) ;
#19 = CARTESIAN_POINT ( 'NONE',  ( 19.59655121533110000, 1.233972479037107800, -364.5000000000260300 ) ) ;
#20 = DIRECTION ( 'NONE',  ( 1.000000000000000000, 0.0000000000000000000, 0.0000000000000000000 ) ) ;
#21 = EDGE_CURVE ( 'NONE', #110, #238, #45, .T. ) ;
#22 = CARTESIAN_POINT ( 'NONE',  ( 22.54655121532622200, 1.233972479037110500, -364.5000000000260300 ) ) ;
#23 = CARTESIAN_POINT ( 'NONE',  ( 19.59655121533110000, -1.716027520962770200, 634.9999999999740800 ) ) ;
#24 = FILL_AREA_STYLE_COLOUR ( '', #15 ) ;
#25 = UNCERTAINTY_MEASURE_WITH_UNIT (LENGTH_MEASURE( 1.000000000000000100E-005 ), #53, 'distance_accuracy_value', 'NONE');
#26 = EDGE_LOOP ( 'NONE', ( #17, #104 ) ) ;
#27 = AXIS2_PLACEMENT_3D ( 'NONE', #148, #96, #184 ) ;
#28 = SURFACE_STYLE_FILL_AREA ( #151 ) ;
#29 = ADVANCED_FACE ( 'NONE', ( #58 ), #9, .T. ) ;
#30 = PRESENTATION_STYLE_ASSIGNMENT (( #149 ) ) ;
#31 = DIRECTION ( 'NONE',  ( 7.888609052210119800E-031, -1.224646799147350000E-016, -1.000000000000000000 ) ) ;
#32 = AXIS2_PLACEMENT_3D ( 'NONE', #108, #130, #20 ) ;
#33 = SURFACE_STYLE_USAGE ( .BOTH. , #211 ) ;
#34 = CARTESIAN_POINT ( 'NONE',  ( 17.14655121537589400, 1.233972479037110700, -365.0000000000659400 ) ) ;
#35 = SURFACE_STYLE_USAGE ( .BOTH. , #236 ) ;
#36 = DIRECTION ( 'NONE',  ( 7.888609052210119800E-031, -1.224646799147350000E-016, -1.000000000000000000 ) ) ;
#37 =( NAMED_UNIT ( * ) PLANE_ANGLE_UNIT ( ) SI_UNIT ( $, .RADIAN. ) );
#38 = DIRECTION ( 'NONE',  ( 0.0000000000000000000, 1.000000000000000000, -1.224646799147350000E-016 ) ) ;
#39 = MECHANICAL_DESIGN_GEOMETRIC_PRESENTATION_REPRESENTATION (  '', ( #158 ), #195 ) ;
#40 = COLOUR_RGB ( '',1.000000000000000000, 1.000000000000000000, 1.000000000000000000 ) ;
#41 =( NAMED_UNIT ( * ) SI_UNIT ( $, .STERADIAN. ) SOLID_ANGLE_UNIT ( ) );
#42 = ORIENTED_EDGE ( 'NONE', *, *, #220, .F. ) ;
#43 = AXIS2_PLACEMENT_3D ( 'NONE', #65, #36, #216 ) ;
#44 = ORIENTED_EDGE ( 'NONE', *, *, #199, .F. ) ;
#45 = CIRCLE ( 'NONE', #6, 2.950000000000000200 ) ;
#46 = CARTESIAN_POINT ( 'NONE',  ( 19.59655121533110000, 1.233972479037230200, 634.9999999999740800 ) ) ;
#47 = DIRECTION ( 'NONE',  ( -0.0000000000000000000, 0.0000000000000000000, 1.000000000000000000 ) ) ;
#48 = STYLED_ITEM ( 'NONE', ( #229 ), #92 ) ;
#49 = PLANE ( 'NONE',  #43 ) ;
#50 = CARTESIAN_POINT ( 'NONE',  ( 19.59655121533110000, 4.183972479037230100, 634.9999999999740800 ) ) ;
#51 = ORIENTED_EDGE ( 'NONE', *, *, #134, .T. ) ;
#52 = CARTESIAN_POINT ( 'NONE',  ( 19.59655121533110000, 1.233972479037107800, -364.5000000000260300 ) ) ;
#53 =( LENGTH_UNIT ( ) NAMED_UNIT ( * ) SI_UNIT ( .MILLI., .METRE. ) );
#54 = DIRECTION ( 'NONE',  ( 7.888609052210119800E-031, -1.224646799147350000E-016, -1.000000000000000000 ) ) ;
#55 = EDGE_LOOP ( 'NONE', ( #101, #225, #197, #120, #162 ) ) ;
#56 =( NAMED_UNIT ( * ) PLANE_ANGLE_UNIT ( ) SI_UNIT ( $, .RADIAN. ) );
#57 = SURFACE_SIDE_STYLE ('',( #28 ) ) ;
#58 = FACE_OUTER_BOUND ( 'NONE', #150, .T. ) ;
#59 = PRODUCT ( '7251001_CNAJF00', '7251001_CNAJF00', '', ( #163 ) ) ;
#60 = ADVANCED_FACE ( 'NONE', ( #212 ), #49, .T. ) ;
#61 = ORIENTED_EDGE ( 'NONE', *, *, #21, .T. ) ;
#62 = AXIS2_PLACEMENT_3D ( 'NONE', #143, #147, #109 ) ;
#63 =( LENGTH_UNIT ( ) NAMED_UNIT ( * ) SI_UNIT ( .MILLI., .METRE. ) );
#64 = DIRECTION ( 'NONE',  ( 0.0000000000000000000, 1.000000000000000000, 0.0000000000000000000 ) ) ;
#65 = CARTESIAN_POINT ( 'NONE',  ( 19.59655121533110000, 1.233972479037110300, -365.0000000000259800 ) ) ;
#66 = SURFACE_STYLE_FILL_AREA ( #113 ) ;
#67 = FILL_AREA_STYLE_COLOUR ( '', #16 ) ;
#68 = SURFACE_STYLE_FILL_AREA ( #11 ) ;
#69 = ORIENTED_EDGE ( 'NONE', *, *, #134, .F. ) ;
#70 = DIRECTION ( 'NONE',  ( 0.0000000000000000000, 0.0000000000000000000, 1.000000000000000000 ) ) ;
#71 = PLANE ( 'NONE',  #227 ) ;
#72 =( NAMED_UNIT ( * ) PLANE_ANGLE_UNIT ( ) SI_UNIT ( $, .RADIAN. ) );
#73 = CARTESIAN_POINT ( 'NONE',  ( 19.59655121533110000, 1.233972479037110500, -365.0000000000659400 ) ) ;
#74 = CONICAL_SURFACE ( 'NONE', #62, 2.949999999886539800, 0.7853981633974482800 ) ;
#75 = CIRCLE ( 'NONE', #176, 2.950000000000000200 ) ;
#76 = AXIS2_PLACEMENT_3D ( 'NONE', #206, #70, #217 ) ;
#77 = ADVANCED_FACE ( 'NONE', ( #124 ), #74, .T. ) ;
#78 = EDGE_CURVE ( 'NONE', #138, #154, #118, .T. ) ;
#79 = CARTESIAN_POINT ( 'NONE',  ( 19.59655121533110000, 1.233972479037110500, -365.0000000000659400 ) ) ;
#80 = CIRCLE ( 'NONE', #192, 2.950000000000000200 ) ;
#81 = DIRECTION ( 'NONE',  ( 0.0000000000000000000, 1.000000000000000000, 0.0000000000000000000 ) ) ;
#82 = DIRECTION ( 'NONE',  ( -7.888609052210119800E-031, 1.224646799147350000E-016, 1.000000000000000000 ) ) ;
#83 = VECTOR ( 'NONE', #116, 1000.000000000000000 ) ;
#84 = CIRCLE ( 'NONE', #160, 2.950000000000000200 ) ;
#85 = CARTESIAN_POINT ( 'NONE',  ( 19.59655121533110000, 1.233972479037107800, -364.5000000000260300 ) ) ;
#86 = CARTESIAN_POINT ( 'NONE',  ( 22.04655121528630700, 1.233972479037110500, -365.0000000000659400 ) ) ;
#87 = LINE ( 'NONE', #234, #100 ) ;
#88 = ORIENTED_EDGE ( 'NONE', *, *, #220, .T. ) ;
#89 = CARTESIAN_POINT ( 'NONE',  ( 19.59655121533110000, 1.233972479037230200, 634.9999999999740800 ) ) ;
#90 =( GEOMETRIC_REPRESENTATION_CONTEXT ( 3 ) GLOBAL_UNCERTAINTY_ASSIGNED_CONTEXT ( ( #179 ) ) GLOBAL_UNIT_ASSIGNED_CONTEXT ( ( #3, #72, #41 ) ) REPRESENTATION_CONTEXT ( 'NONE', 'WORKASPACE' ) );
#91 =( LENGTH_UNIT ( ) NAMED_UNIT ( * ) SI_UNIT ( .MILLI., .METRE. ) );
#92 = ADVANCED_BREP_SHAPE_REPRESENTATION ( '7251001_CNAJF00', ( #164, #76 ), #167 ) ;
#93 = ORIENTED_EDGE ( 'NONE', *, *, #2, .T. ) ;
#94 = CARTESIAN_POINT ( 'NONE',  ( 19.59655121533110000, 1.233972479037230200, 634.9999999999740800 ) ) ;
#95 = PRODUCT_DEFINITION_FORMATION_WITH_SPECIFIED_SOURCE ( 'ANY', '', #59, .NOT_KNOWN. ) ;
#96 = DIRECTION ( 'NONE',  ( 7.888609052210119800E-031, -1.224646799147350000E-016, -1.000000000000000000 ) ) ;
#97 = CARTESIAN_POINT ( 'NONE',  ( 19.59655121533110000, -1.716027520962892100, -364.5000000000260300 ) ) ;
#98 =( GEOMETRIC_REPRESENTATION_CONTEXT ( 3 ) GLOBAL_UNCERTAINTY_ASSIGNED_CONTEXT ( ( #153 ) ) GLOBAL_UNIT_ASSIGNED_CONTEXT ( ( #63, #196, #107 ) ) REPRESENTATION_CONTEXT ( 'NONE', 'WORKASPACE' ) );
#99 = DIRECTION ( 'NONE',  ( -0.0000000000000000000, 0.0000000000000000000, 1.000000000000000000 ) ) ;
#100 = VECTOR ( 'NONE', #214, 1000.000000000000000 ) ;
#101 = ORIENTED_EDGE ( 'NONE', *, *, #172, .T. ) ;
#102 = EDGE_CURVE ( 'NONE', #238, #174, #173, .T. ) ;
#103 = CYLINDRICAL_SURFACE ( 'NONE', #180, 2.950000000000000200 ) ;
#104 = ORIENTED_EDGE ( 'NONE', *, *, #2, .F. ) ;
#105 = SHAPE_DEFINITION_REPRESENTATION ( #228, #92 ) ;
#106 = AXIS2_PLACEMENT_3D ( 'NONE', #218, #222, #204 ) ;
#107 =( NAMED_UNIT ( * ) SI_UNIT ( $, .STERADIAN. ) SOLID_ANGLE_UNIT ( ) );
#108 = CARTESIAN_POINT ( 'NONE',  ( 19.59655121533110000, 1.233972479037110500, -364.5000000001346100 ) ) ;
#109 = DIRECTION ( 'NONE',  ( 1.000000000000000000, 0.0000000000000000000, 0.0000000000000000000 ) ) ;
#110 = VERTEX_POINT ( 'NONE', #237 ) ;
#111 = AXIS2_PLACEMENT_3D ( 'NONE', #79, #47, #125 ) ;
#112 = PRODUCT_DEFINITION_CONTEXT ( 'detailed design', #203, 'design' ) ;
#113 = FILL_AREA_STYLE ('',( #224 ) ) ;
#114 = CIRCLE ( 'NONE', #209, 2.449999999955206700 ) ;
#115 = ORIENTED_EDGE ( 'NONE', *, *, #102, .F. ) ;
#116 = DIRECTION ( 'NONE',  ( -0.7071067811865474600, 8.659560562354931600E-017, 0.7071067811865475700 ) ) ;
#117 = EDGE_CURVE ( 'NONE', #157, #238, #87, .T. ) ;
#118 = LINE ( 'NONE', #50, #188 ) ;
#119 =( NAMED_UNIT ( * ) PLANE_ANGLE_UNIT ( ) SI_UNIT ( $, .RADIAN. ) );
#120 = ORIENTED_EDGE ( 'NONE', *, *, #126, .T. ) ;
#121 = PRESENTATION_STYLE_ASSIGNMENT (( #33 ) ) ;
#122 = VERTEX_POINT ( 'NONE', #86 ) ;
#123 = STYLED_ITEM ( 'NONE', ( #141 ), #164 ) ;
#124 = FACE_OUTER_BOUND ( 'NONE', #5, .T. ) ;
#125 = DIRECTION ( 'NONE',  ( 1.000000000000000000, 0.0000000000000000000, 0.0000000000000000000 ) ) ;
#126 = EDGE_CURVE ( 'NONE', #174, #154, #84, .T. ) ;
#127 = DIRECTION ( 'NONE',  ( -7.888609052210119800E-031, 1.224646799147350000E-016, 1.000000000000000000 ) ) ;
#128 =( NAMED_UNIT ( * ) SI_UNIT ( $, .STERADIAN. ) SOLID_ANGLE_UNIT ( ) );
#129 = CARTESIAN_POINT ( 'NONE',  ( 19.59655121533110000, 4.183972479037230100, 634.9999999999740800 ) ) ;
#130 = DIRECTION ( 'NONE',  ( -0.0000000000000000000, 0.0000000000000000000, 1.000000000000000000 ) ) ;
#131 = CYLINDRICAL_SURFACE ( 'NONE', #27, 2.950000000000000200 ) ;
#132 =( LENGTH_UNIT ( ) NAMED_UNIT ( * ) SI_UNIT ( .MILLI., .METRE. ) );
#133 = CIRCLE ( 'NONE', #111, 2.449999999955206700 ) ;
#134 = EDGE_CURVE ( 'NONE', #154, #110, #75, .T. ) ;
#135 = CARTESIAN_POINT ( 'NONE',  ( 22.54655121521764000, 1.233972479037110500, -364.5000000001346100 ) ) ;
#136 = CARTESIAN_POINT ( 'NONE',  ( 19.59655121533110000, 1.233972479037107800, -364.5000000000260300 ) ) ;
#137 = PRESENTATION_LAYER_ASSIGNMENT (  '', '', ( #123 ) ) ;
#138 = VERTEX_POINT ( 'NONE', #129 ) ;
#139 = PRESENTATION_LAYER_ASSIGNMENT (  '', '', ( #13 ) ) ;
#140 = VECTOR ( 'NONE', #205, 1000.000000000000000 ) ;
#141 = PRESENTATION_STYLE_ASSIGNMENT (( #221 ) ) ;
#142 = ORIENTED_EDGE ( 'NONE', *, *, #207, .T. ) ;
#143 = CARTESIAN_POINT ( 'NONE',  ( 19.59655121533110000, 1.233972479037110500, -364.5000000001346100 ) ) ;
#144 = APPLICATION_CONTEXT ( 'automotive_design' ) ;
#145 = LINE ( 'NONE', #185, #83 ) ;
#146 = MECHANICAL_DESIGN_GEOMETRIC_PRESENTATION_REPRESENTATION (  '', ( #123 ), #90 ) ;
#147 = DIRECTION ( 'NONE',  ( -0.0000000000000000000, 0.0000000000000000000, 1.000000000000000000 ) ) ;
#148 = CARTESIAN_POINT ( 'NONE',  ( 19.59655121533110000, 1.233972479037230200, 634.9999999999740800 ) ) ;
#149 = SURFACE_STYLE_USAGE ( .BOTH. , #240 ) ;
#150 = EDGE_LOOP ( 'NONE', ( #44, #93, #88, #115, #208 ) ) ;
#151 = FILL_AREA_STYLE ('',( #67 ) ) ;
#152 = AXIS2_PLACEMENT_3D ( 'NONE', #52, #82, #198 ) ;
#153 = UNCERTAINTY_MEASURE_WITH_UNIT (LENGTH_MEASURE( 1.000000000000000100E-005 ), #63, 'distance_accuracy_value', 'NONE');
#154 = VERTEX_POINT ( 'NONE', #235 ) ;
#155 = PRESENTATION_LAYER_ASSIGNMENT (  '', '', ( #158 ) ) ;
#156 = MECHANICAL_DESIGN_GEOMETRIC_PRESENTATION_REPRESENTATION (  '', ( #48 ), #226 ) ;
#157 = VERTEX_POINT ( 'NONE', #23 ) ;
#158 = STYLED_ITEM ( 'NONE', ( #30 ), #175 ) ;
#159 = CLOSED_SHELL ( 'NONE', ( #8, #77, #175, #29, #193, #60 ) ) ;
#160 = AXIS2_PLACEMENT_3D ( 'NONE', #85, #127, #181 ) ;
#161 = FILL_AREA_STYLE ('',( #24 ) ) ;
#162 = ORIENTED_EDGE ( 'NONE', *, *, #78, .F. ) ;
#163 = PRODUCT_CONTEXT ( 'NONE', #144, 'mechanical' ) ;
#164 = MANIFOLD_SOLID_BREP ( 'Importiert1', #159 ) ;
#165 = CIRCLE ( 'NONE', #106, 2.950000000000000200 ) ;
#166 = VERTEX_POINT ( 'NONE', #34 ) ;
#167 =( GEOMETRIC_REPRESENTATION_CONTEXT ( 3 ) GLOBAL_UNCERTAINTY_ASSIGNED_CONTEXT ( ( #25 ) ) GLOBAL_UNIT_ASSIGNED_CONTEXT ( ( #53, #119, #4 ) ) REPRESENTATION_CONTEXT ( 'NONE', 'WORKASPACE' ) );
#168 = DIRECTION ( 'NONE',  ( 0.0000000000000000000, 1.000000000000000000, 0.0000000000000000000 ) ) ;
#169 = DIRECTION ( 'NONE',  ( -7.888609052210119800E-031, 1.224646799147350000E-016, 1.000000000000000000 ) ) ;
#170 = UNCERTAINTY_MEASURE_WITH_UNIT (LENGTH_MEASURE( 1.000000000000000100E-005 ), #132, 'distance_accuracy_value', 'NONE');
#171 = COLOUR_RGB ( '',1.000000000000000000, 1.000000000000000000, 1.000000000000000000 ) ;
#172 = EDGE_CURVE ( 'NONE', #138, #157, #165, .T. ) ;
#173 = CIRCLE ( 'NONE', #152, 2.950000000000000200 ) ;
#174 = VERTEX_POINT ( 'NONE', #22 ) ;
#175 = ADVANCED_FACE ( 'NONE', ( #215 ), #131, .T. ) ;
#176 = AXIS2_PLACEMENT_3D ( 'NONE', #136, #169, #168 ) ;
#177 = FACE_OUTER_BOUND ( 'NONE', #7, .T. ) ;
#178 = FILL_AREA_STYLE_COLOUR ( '', #40 ) ;
#179 = UNCERTAINTY_MEASURE_WITH_UNIT (LENGTH_MEASURE( 1.000000000000000100E-005 ), #3, 'distance_accuracy_value', 'NONE');
#180 = AXIS2_PLACEMENT_3D ( 'NONE', #46, #31, #81 ) ;
#181 = DIRECTION ( 'NONE',  ( 0.0000000000000000000, 1.000000000000000000, 0.0000000000000000000 ) ) ;
#182 = APPLICATION_PROTOCOL_DEFINITION ( 'draft international standard', 'automotive_design', 1998, #203 ) ;
#183 = EDGE_LOOP ( 'NONE', ( #219, #1, #210, #51, #61 ) ) ;
#184 = DIRECTION ( 'NONE',  ( 0.0000000000000000000, 1.000000000000000000, 0.0000000000000000000 ) ) ;
#185 = CARTESIAN_POINT ( 'NONE',  ( 16.64655121544456100, 1.233972479037110700, -364.5000000001346100 ) ) ;
#186 = DIRECTION ( 'NONE',  ( 0.0000000000000000000, 1.000000000000000000, 0.0000000000000000000 ) ) ;
#187 =( NAMED_UNIT ( * ) SI_UNIT ( $, .STERADIAN. ) SOLID_ANGLE_UNIT ( ) );
#188 = VECTOR ( 'NONE', #14, 1000.000000000000000 ) ;
#189 = EDGE_CURVE ( 'NONE', #157, #138, #80, .T. ) ;
#190 = DIRECTION ( 'NONE',  ( 1.000000000000000000, 0.0000000000000000000, 0.0000000000000000000 ) ) ;
#191 = ORIENTED_EDGE ( 'NONE', *, *, #126, .F. ) ;
#192 = AXIS2_PLACEMENT_3D ( 'NONE', #89, #54, #186 ) ;
#193 = ADVANCED_FACE ( 'NONE', ( #177 ), #71, .F. ) ;
#194 = ORIENTED_EDGE ( 'NONE', *, *, #189, .F. ) ;
#195 =( GEOMETRIC_REPRESENTATION_CONTEXT ( 3 ) GLOBAL_UNCERTAINTY_ASSIGNED_CONTEXT ( ( #233 ) ) GLOBAL_UNIT_ASSIGNED_CONTEXT ( ( #91, #56, #187 ) ) REPRESENTATION_CONTEXT ( 'NONE', 'WORKASPACE' ) );
#196 =( NAMED_UNIT ( * ) PLANE_ANGLE_UNIT ( ) SI_UNIT ( $, .RADIAN. ) );
#197 = ORIENTED_EDGE ( 'NONE', *, *, #102, .T. ) ;
#198 = DIRECTION ( 'NONE',  ( 0.0000000000000000000, 1.000000000000000000, 0.0000000000000000000 ) ) ;
#199 = EDGE_CURVE ( 'NONE', #166, #110, #145, .T. ) ;
#200 = ORIENTED_EDGE ( 'NONE', *, *, #172, .F. ) ;
#201 = PRODUCT_RELATED_PRODUCT_CATEGORY ( 'part', '', ( #59 ) ) ;
#202 = DIRECTION ( 'NONE',  ( 7.888609052210119800E-031, -1.224646799147350000E-016, -1.000000000000000000 ) ) ;
#203 = APPLICATION_CONTEXT ( 'automotive_design' ) ;
#204 = DIRECTION ( 'NONE',  ( 0.0000000000000000000, 1.000000000000000000, 0.0000000000000000000 ) ) ;
#205 = DIRECTION ( 'NONE',  ( 0.7071067811865474600, 0.0000000000000000000, 0.7071067811865475700 ) ) ;
#206 = CARTESIAN_POINT ( 'NONE',  ( 0.0000000000000000000, 0.0000000000000000000, 0.0000000000000000000 ) ) ;
#207 = EDGE_CURVE ( 'NONE', #122, #166, #114, .T. ) ;
#208 = ORIENTED_EDGE ( 'NONE', *, *, #21, .F. ) ;
#209 = AXIS2_PLACEMENT_3D ( 'NONE', #73, #99, #190 ) ;
#210 = ORIENTED_EDGE ( 'NONE', *, *, #78, .T. ) ;
#211 = SURFACE_SIDE_STYLE ('',( #68 ) ) ;
#212 = FACE_OUTER_BOUND ( 'NONE', #26, .T. ) ;
#213 = PRESENTATION_LAYER_ASSIGNMENT (  '', '', ( #48 ) ) ;
#214 = DIRECTION ( 'NONE',  ( 7.888609052210119800E-031, -1.224646799147350000E-016, -1.000000000000000000 ) ) ;
#215 = FACE_OUTER_BOUND ( 'NONE', #183, .T. ) ;
#216 = DIRECTION ( 'NONE',  ( 0.0000000000000000000, 1.000000000000000000, -1.224646799147350000E-016 ) ) ;
#217 = DIRECTION ( 'NONE',  ( 1.000000000000000000, 0.0000000000000000000, 0.0000000000000000000 ) ) ;
#218 = CARTESIAN_POINT ( 'NONE',  ( 19.59655121533110000, 1.233972479037230200, 634.9999999999740800 ) ) ;
#219 = ORIENTED_EDGE ( 'NONE', *, *, #117, .F. ) ;
#220 = EDGE_CURVE ( 'NONE', #122, #174, #230, .T. ) ;
#221 = SURFACE_STYLE_USAGE ( .BOTH. , #57 ) ;
#222 = DIRECTION ( 'NONE',  ( 7.888609052210119800E-031, -1.224646799147350000E-016, -1.000000000000000000 ) ) ;
#223 = PRODUCT_DEFINITION ( 'UNKNOWN', '', #95, #112 ) ;
#224 = FILL_AREA_STYLE_COLOUR ( '', #171 ) ;
#225 = ORIENTED_EDGE ( 'NONE', *, *, #117, .T. ) ;
#226 =( GEOMETRIC_REPRESENTATION_CONTEXT ( 3 ) GLOBAL_UNCERTAINTY_ASSIGNED_CONTEXT ( ( #170 ) ) GLOBAL_UNIT_ASSIGNED_CONTEXT ( ( #132, #37, #128 ) ) REPRESENTATION_CONTEXT ( 'NONE', 'WORKASPACE' ) );
#227 = AXIS2_PLACEMENT_3D ( 'NONE', #94, #202, #38 ) ;
#228 = PRODUCT_DEFINITION_SHAPE ( 'NONE', 'NONE',  #223 ) ;
#229 = PRESENTATION_STYLE_ASSIGNMENT (( #35 ) ) ;
#230 = LINE ( 'NONE', #135, #140 ) ;
#231 = ORIENTED_EDGE ( 'NONE', *, *, #199, .T. ) ;
#232 = MECHANICAL_DESIGN_GEOMETRIC_PRESENTATION_REPRESENTATION (  '', ( #13 ), #98 ) ;
#233 = UNCERTAINTY_MEASURE_WITH_UNIT (LENGTH_MEASURE( 1.000000000000000100E-005 ), #91, 'distance_accuracy_value', 'NONE');
#234 = CARTESIAN_POINT ( 'NONE',  ( 19.59655121533110000, -1.716027520962770200, 634.9999999999740800 ) ) ;
#235 = CARTESIAN_POINT ( 'NONE',  ( 19.59655121533110000, 4.183972479037107600, -364.5000000000260300 ) ) ;
#236 = SURFACE_SIDE_STYLE ('',( #12 ) ) ;
#237 = CARTESIAN_POINT ( 'NONE',  ( 16.64655121533598200, 1.233972479037110700, -364.5000000000260300 ) ) ;
#238 = VERTEX_POINT ( 'NONE', #97 ) ;
#239 = DIRECTION ( 'NONE',  ( -7.888609052210119800E-031, 1.224646799147350000E-016, 1.000000000000000000 ) ) ;
#240 = SURFACE_SIDE_STYLE ('',( #66 ) ) ;
ENDSEC;
END-ISO-10303-21;
