ISO-10303-21;
HEADER;
FILE_DESCRIPTION (( 'STEP AP214' ),
    '1' );
FILE_NAME ('7251002',
    '2019-02-01T14:20:07',
    ( '' ),
    ('JUGARD+KÜNSTNER GmbH'),
    'SwSTEP 2.0',
    'SolidWorks 2017',
    '' );
FILE_SCHEMA (( 'AUTOMOTIVE_DESIGN' ));
ENDSEC;

DATA;
#1 = LINE ( 'NONE', #119, #175 ) ;
#2 =( LENGTH_UNIT ( ) NAMED_UNIT ( * ) SI_UNIT ( .MILLI., .METRE. ) );
#3 = VECTOR ( 'NONE', #73, 1000.000000000000100 ) ;
#4 = FACE_OUTER_BOUND ( 'NONE', #115, .T. ) ;
#5 = PRESENTATION_STYLE_ASSIGNMENT (( #148 ) ) ;
#6 = LINE ( 'NONE', #24, #120 ) ;
#7 = AXIS2_PLACEMENT_3D ( 'NONE', #163, #196, #22 ) ;
#8 = FACE_OUTER_BOUND ( 'NONE', #37, .T. ) ;
#9 =( NAMED_UNIT ( * ) PLANE_ANGLE_UNIT ( ) SI_UNIT ( $, .RADIAN. ) );
#10 = ORIENTED_EDGE ( 'NONE', *, *, #199, .F. ) ;
#11 =( NAMED_UNIT ( * ) SI_UNIT ( $, .STERADIAN. ) SOLID_ANGLE_UNIT ( ) );
#12 =( LENGTH_UNIT ( ) NAMED_UNIT ( * ) SI_UNIT ( .MILLI., .METRE. ) );
#13 = ADVANCED_BREP_SHAPE_REPRESENTATION ( '7251002_CNAJF00', ( #198, #124 ), #16 ) ;
#14 = FACE_OUTER_BOUND ( 'NONE', #162, .T. ) ;
#15 = SURFACE_SIDE_STYLE ('',( #158 ) ) ;
#16 =( GEOMETRIC_REPRESENTATION_CONTEXT ( 3 ) GLOBAL_UNCERTAINTY_ASSIGNED_CONTEXT ( ( #183 ) ) GLOBAL_UNIT_ASSIGNED_CONTEXT ( ( #81, #206, #65 ) ) REPRESENTATION_CONTEXT ( 'NONE', 'WORKASPACE' ) );
#17 = PLANE ( 'NONE',  #70 ) ;
#18 = MECHANICAL_DESIGN_GEOMETRIC_PRESENTATION_REPRESENTATION (  '', ( #69 ), #126 ) ;
#19 = ORIENTED_EDGE ( 'NONE', *, *, #38, .F. ) ;
#20 = ORIENTED_EDGE ( 'NONE', *, *, #114, .F. ) ;
#21 = CARTESIAN_POINT ( 'NONE',  ( 19.59655121533110000, 1.233972479037150000, -4.374999999981810100 ) ) ;
#22 = DIRECTION ( 'NONE',  ( 0.0000000000000000000, 1.000000000000000000, -2.202823461557850300E-016 ) ) ;
#23 = MECHANICAL_DESIGN_GEOMETRIC_PRESENTATION_REPRESENTATION (  '', ( #133 ), #113 ) ;
#24 = CARTESIAN_POINT ( 'NONE',  ( 19.59655121533110000, -2.703527520970989300, -4.374999999981810100 ) ) ;
#25 = CARTESIAN_POINT ( 'NONE',  ( 19.59655121533110000, -2.703527520926692200, -4.375000000026107100 ) ) ;
#26 = COLOUR_RGB ( '',0.7529411764705882200, 0.7529411764705882200, 0.8117647058823529400 ) ;
#27 = DIRECTION ( 'NONE',  ( 0.0000000000000000000, 1.000000000000000000, 0.0000000000000000000 ) ) ;
#28 = SURFACE_SIDE_STYLE ('',( #91 ) ) ;
#29 = SURFACE_SIDE_STYLE ('',( #168 ) ) ;
#30 = EDGE_CURVE ( 'NONE', #85, #105, #103, .T. ) ;
#31 = FACE_OUTER_BOUND ( 'NONE', #117, .T. ) ;
#32 = APPLICATION_CONTEXT ( 'automotive_design' ) ;
#33 = ORIENTED_EDGE ( 'NONE', *, *, #52, .F. ) ;
#34 = DIRECTION ( 'NONE',  ( 0.0000000000000000000, 1.000000000000000000, -2.202823461557850300E-016 ) ) ;
#35 = EDGE_CURVE ( 'NONE', #112, #85, #53, .T. ) ;
#36 = DIRECTION ( 'NONE',  ( 0.0000000000000000000, -1.000000000000000000, 0.0000000000000000000 ) ) ;
#37 = EDGE_LOOP ( 'NONE', ( #111, #212, #131, #20 ) ) ;
#38 = EDGE_CURVE ( 'NONE', #134, #105, #190, .T. ) ;
#39 = CARTESIAN_POINT ( 'NONE',  ( 19.59655121533110000, 1.233972479037150000, -4.374999999981810100 ) ) ;
#40 = VERTEX_POINT ( 'NONE', #116 ) ;
#41 =( LENGTH_UNIT ( ) NAMED_UNIT ( * ) SI_UNIT ( .MILLI., .METRE. ) );
#42 = FILL_AREA_STYLE ('',( #146 ) ) ;
#43 = DIRECTION ( 'NONE',  ( 1.000000000000000000, 0.0000000000000000000, 0.0000000000000000000 ) ) ;
#44 = SURFACE_STYLE_USAGE ( .BOTH. , #29 ) ;
#45 = CONICAL_SURFACE ( 'NONE', #138, 3.937500000008139300, 0.7853981633519735400 ) ;
#46 = DIRECTION ( 'NONE',  ( 7.888609052210119800E-031, -1.224646799147350000E-016, -1.000000000000000000 ) ) ;
#47 = FILL_AREA_STYLE_COLOUR ( '', #152 ) ;
#48 = EDGE_CURVE ( 'NONE', #161, #134, #58, .T. ) ;
#49 = CONICAL_SURFACE ( 'NONE', #84, 3.937500000008139300, 0.7853981633519735400 ) ;
#50 = DIRECTION ( 'NONE',  ( -7.888609052210119800E-031, 1.224646799147350000E-016, 1.000000000000000000 ) ) ;
#51 = APPLICATION_PROTOCOL_DEFINITION ( 'draft international standard', 'automotive_design', 1998, #153 ) ;
#52 = EDGE_CURVE ( 'NONE', #105, #85, #55, .T. ) ;
#53 = LINE ( 'NONE', #132, #143 ) ;
#54 = EDGE_CURVE ( 'NONE', #112, #40, #96, .T. ) ;
#55 = CIRCLE ( 'NONE', #7, 3.937500000000000000 ) ;
#56 = PLANE ( 'NONE',  #191 ) ;
#57 = PRESENTATION_LAYER_ASSIGNMENT (  '', '', ( #133 ) ) ;
#58 = CIRCLE ( 'NONE', #176, 3.312500000051340300 ) ;
#59 =( NAMED_UNIT ( * ) PLANE_ANGLE_UNIT ( ) SI_UNIT ( $, .RADIAN. ) );
#60 = CARTESIAN_POINT ( 'NONE',  ( 19.59655121533110000, 1.233972479037150000, -5.000000000026149700 ) ) ;
#61 = ORIENTED_EDGE ( 'NONE', *, *, #90, .F. ) ;
#62 =( LENGTH_UNIT ( ) NAMED_UNIT ( * ) SI_UNIT ( .MILLI., .METRE. ) );
#63 = AXIS2_PLACEMENT_3D ( 'NONE', #137, #180, #72 ) ;
#64 = FILL_AREA_STYLE ('',( #182 ) ) ;
#65 =( NAMED_UNIT ( * ) SI_UNIT ( $, .STERADIAN. ) SOLID_ANGLE_UNIT ( ) );
#66 = EDGE_LOOP ( 'NONE', ( #215, #101, #109, #187 ) ) ;
#67 = ORIENTED_EDGE ( 'NONE', *, *, #30, .T. ) ;
#68 =( NAMED_UNIT ( * ) SI_UNIT ( $, .STERADIAN. ) SOLID_ANGLE_UNIT ( ) );
#69 = STYLED_ITEM ( 'NONE', ( #92 ), #100 ) ;
#70 = AXIS2_PLACEMENT_3D ( 'NONE', #60, #46, #186 ) ;
#71 = ADVANCED_FACE ( 'NONE', ( #14 ), #49, .T. ) ;
#72 = DIRECTION ( 'NONE',  ( 0.0000000000000000000, 1.000000000000000000, 0.0000000000000000000 ) ) ;
#73 = DIRECTION ( 'NONE',  ( 8.659560561961140900E-017, 0.7071067811543920700, 0.7071067812187028500 ) ) ;
#74 = CARTESIAN_POINT ( 'NONE',  ( 19.59655121533110000, 4.546472479088490300, -4.999999999995452500 ) ) ;
#75 = DIRECTION ( 'NONE',  ( 7.888609052210119800E-031, -1.224646799147350000E-016, -1.000000000000000000 ) ) ;
#76 = CLOSED_SHELL ( 'NONE', ( #100, #160, #194, #71, #192, #218 ) ) ;
#77 = DIRECTION ( 'NONE',  ( -0.0000000000000000000, 1.101411730776648300E-016, 1.000000000000000000 ) ) ;
#78 = PRODUCT_DEFINITION_SHAPE ( 'NONE', 'NONE',  #210 ) ;
#79 = AXIS2_PLACEMENT_3D ( 'NONE', #122, #77, #202 ) ;
#80 = UNCERTAINTY_MEASURE_WITH_UNIT (LENGTH_MEASURE( 1.000000000000000100E-005 ), #12, 'distance_accuracy_value', 'NONE');
#81 =( LENGTH_UNIT ( ) NAMED_UNIT ( * ) SI_UNIT ( .MILLI., .METRE. ) );
#82 = PRESENTATION_STYLE_ASSIGNMENT (( #44 ) ) ;
#83 = ORIENTED_EDGE ( 'NONE', *, *, #35, .T. ) ;
#84 = AXIS2_PLACEMENT_3D ( 'NONE', #21, #104, #36 ) ;
#85 = VERTEX_POINT ( 'NONE', #25 ) ;
#86 = DIRECTION ( 'NONE',  ( -0.0000000000000000000, 1.101411730776648300E-016, 1.000000000000000000 ) ) ;
#87 = PRESENTATION_LAYER_ASSIGNMENT (  '', '', ( #102 ) ) ;
#88 = CARTESIAN_POINT ( 'NONE',  ( 19.59655121533110000, 1.233972479037150000, -4.999999999995452500 ) ) ;
#89 = UNCERTAINTY_MEASURE_WITH_UNIT (LENGTH_MEASURE( 1.000000000000000100E-005 ), #62, 'distance_accuracy_value', 'NONE');
#90 = EDGE_CURVE ( 'NONE', #134, #161, #179, .T. ) ;
#91 = SURFACE_STYLE_FILL_AREA ( #213 ) ;
#92 = PRESENTATION_STYLE_ASSIGNMENT (( #95 ) ) ;
#93 = SURFACE_SIDE_STYLE ('',( #136 ) ) ;
#94 = DIRECTION ( 'NONE',  ( 7.888609052210119800E-031, -1.224646799147350000E-016, -1.000000000000000000 ) ) ;
#95 = SURFACE_STYLE_USAGE ( .BOTH. , #93 ) ;
#96 = CIRCLE ( 'NONE', #63, 3.937500000000000000 ) ;
#97 = CIRCLE ( 'NONE', #106, 3.937500000000000000 ) ;
#98 = DIRECTION ( 'NONE',  ( 7.888609052210119800E-031, -1.224646799147350000E-016, -1.000000000000000000 ) ) ;
#99 = SURFACE_STYLE_USAGE ( .BOTH. , #15 ) ;
#100 = ADVANCED_FACE ( 'NONE', ( #4 ), #129, .T. ) ;
#101 = ORIENTED_EDGE ( 'NONE', *, *, #54, .T. ) ;
#102 = STYLED_ITEM ( 'NONE', ( #5 ), #13 ) ;
#103 = CIRCLE ( 'NONE', #159, 3.937500000000000000 ) ;
#104 = DIRECTION ( 'NONE',  ( -0.0000000000000000000, 1.101411730776648300E-016, 1.000000000000000000 ) ) ;
#105 = VERTEX_POINT ( 'NONE', #121 ) ;
#106 = AXIS2_PLACEMENT_3D ( 'NONE', #211, #98, #151 ) ;
#107 = CARTESIAN_POINT ( 'NONE',  ( 19.59655121533110000, 1.233972479037269900, 994.9999999999739700 ) ) ;
#108 = PRESENTATION_LAYER_ASSIGNMENT (  '', '', ( #69 ) ) ;
#109 = ORIENTED_EDGE ( 'NONE', *, *, #188, .T. ) ;
#110 = SHAPE_DEFINITION_REPRESENTATION ( #78, #13 ) ;
#111 = ORIENTED_EDGE ( 'NONE', *, *, #48, .T. ) ;
#112 = VERTEX_POINT ( 'NONE', #145 ) ;
#113 =( GEOMETRIC_REPRESENTATION_CONTEXT ( 3 ) GLOBAL_UNCERTAINTY_ASSIGNED_CONTEXT ( ( #167 ) ) GLOBAL_UNIT_ASSIGNED_CONTEXT ( ( #41, #59, #205 ) ) REPRESENTATION_CONTEXT ( 'NONE', 'WORKASPACE' ) );
#114 = EDGE_CURVE ( 'NONE', #161, #85, #6, .T. ) ;
#115 = EDGE_LOOP ( 'NONE', ( #166, #83, #67, #201 ) ) ;
#116 = CARTESIAN_POINT ( 'NONE',  ( 19.59655121533110000, 5.171472479037269900, 994.9999999999739700 ) ) ;
#117 = EDGE_LOOP ( 'NONE', ( #10, #169 ) ) ;
#118 =( GEOMETRIC_REPRESENTATION_CONTEXT ( 3 ) GLOBAL_UNCERTAINTY_ASSIGNED_CONTEXT ( ( #89 ) ) GLOBAL_UNIT_ASSIGNED_CONTEXT ( ( #62, #177, #68 ) ) REPRESENTATION_CONTEXT ( 'NONE', 'WORKASPACE' ) );
#119 = CARTESIAN_POINT ( 'NONE',  ( 19.59655121533110000, 5.171472479037269900, 994.9999999999739700 ) ) ;
#120 = VECTOR ( 'NONE', #142, 1000.000000000000000 ) ;
#121 = CARTESIAN_POINT ( 'NONE',  ( 19.59655121533110000, 5.171472479000990500, -4.375000000026108900 ) ) ;
#122 = CARTESIAN_POINT ( 'NONE',  ( 19.59655121533110000, 1.233972479037150000, -4.999999999995452500 ) ) ;
#123 = DIRECTION ( 'NONE',  ( 0.0000000000000000000, -1.000000000000000000, 0.0000000000000000000 ) ) ;
#124 = AXIS2_PLACEMENT_3D ( 'NONE', #189, #130, #43 ) ;
#125 = COLOUR_RGB ( '',1.000000000000000000, 1.000000000000000000, 1.000000000000000000 ) ;
#126 =( GEOMETRIC_REPRESENTATION_CONTEXT ( 3 ) GLOBAL_UNCERTAINTY_ASSIGNED_CONTEXT ( ( #207 ) ) GLOBAL_UNIT_ASSIGNED_CONTEXT ( ( #2, #9, #11 ) ) REPRESENTATION_CONTEXT ( 'NONE', 'WORKASPACE' ) );
#127 = CARTESIAN_POINT ( 'NONE',  ( 19.59655121533110000, 1.233972479037269900, 994.9999999999739700 ) ) ;
#128 = COLOUR_RGB ( '',1.000000000000000000, 1.000000000000000000, 1.000000000000000000 ) ;
#129 = CYLINDRICAL_SURFACE ( 'NONE', #155, 3.937500000000000000 ) ;
#130 = DIRECTION ( 'NONE',  ( 0.0000000000000000000, 0.0000000000000000000, 1.000000000000000000 ) ) ;
#131 = ORIENTED_EDGE ( 'NONE', *, *, #30, .F. ) ;
#132 = CARTESIAN_POINT ( 'NONE',  ( 19.59655121533110000, -2.703527520962730100, 994.9999999999739700 ) ) ;
#133 = STYLED_ITEM ( 'NONE', ( #156 ), #198 ) ;
#134 = VERTEX_POINT ( 'NONE', #74 ) ;
#135 = CARTESIAN_POINT ( 'NONE',  ( 19.59655121533110000, 1.233972479037147800, -4.375000000026108000 ) ) ;
#136 = SURFACE_STYLE_FILL_AREA ( #172 ) ;
#137 = CARTESIAN_POINT ( 'NONE',  ( 19.59655121533110000, 1.233972479037269900, 994.9999999999739700 ) ) ;
#138 = AXIS2_PLACEMENT_3D ( 'NONE', #39, #185, #123 ) ;
#139 = DIRECTION ( 'NONE',  ( 7.888609052210119800E-031, -1.224646799147350000E-016, -1.000000000000000000 ) ) ;
#140 = PRODUCT ( '7251002_CNAJF00', '7251002_CNAJF00', '', ( #149 ) ) ;
#141 =( GEOMETRIC_REPRESENTATION_CONTEXT ( 3 ) GLOBAL_UNCERTAINTY_ASSIGNED_CONTEXT ( ( #80 ) ) GLOBAL_UNIT_ASSIGNED_CONTEXT ( ( #12, #209, #150 ) ) REPRESENTATION_CONTEXT ( 'NONE', 'WORKASPACE' ) );
#142 = DIRECTION ( 'NONE',  ( 0.0000000000000000000, -0.7071067811543919600, 0.7071067812187031800 ) ) ;
#143 = VECTOR ( 'NONE', #157, 1000.000000000000000 ) ;
#144 = CARTESIAN_POINT ( 'NONE',  ( 19.59655121533110000, -2.078527521014190200, -4.999999999995452500 ) ) ;
#145 = CARTESIAN_POINT ( 'NONE',  ( 19.59655121533110000, -2.703527520962730100, 994.9999999999739700 ) ) ;
#146 = FILL_AREA_STYLE_COLOUR ( '', #26 ) ;
#147 = ORIENTED_EDGE ( 'NONE', *, *, #90, .T. ) ;
#148 = SURFACE_STYLE_USAGE ( .BOTH. , #28 ) ;
#149 = PRODUCT_CONTEXT ( 'NONE', #32, 'mechanical' ) ;
#150 =( NAMED_UNIT ( * ) SI_UNIT ( $, .STERADIAN. ) SOLID_ANGLE_UNIT ( ) );
#151 = DIRECTION ( 'NONE',  ( 0.0000000000000000000, 1.000000000000000000, 0.0000000000000000000 ) ) ;
#152 = COLOUR_RGB ( '',0.7529411764705882200, 0.7529411764705882200, 0.7529411764705882200 ) ;
#153 = APPLICATION_CONTEXT ( 'automotive_design' ) ;
#154 = CARTESIAN_POINT ( 'NONE',  ( 19.59655121533110000, 5.171472479045289300, -4.374999999981810100 ) ) ;
#155 = AXIS2_PLACEMENT_3D ( 'NONE', #107, #94, #171 ) ;
#156 = PRESENTATION_STYLE_ASSIGNMENT (( #99 ) ) ;
#157 = DIRECTION ( 'NONE',  ( 7.888609052210119800E-031, -1.224646799147350000E-016, -1.000000000000000000 ) ) ;
#158 = SURFACE_STYLE_FILL_AREA ( #42 ) ;
#159 = AXIS2_PLACEMENT_3D ( 'NONE', #135, #50, #34 ) ;
#160 = ADVANCED_FACE ( 'NONE', ( #8 ), #45, .T. ) ;
#161 = VERTEX_POINT ( 'NONE', #144 ) ;
#162 = EDGE_LOOP ( 'NONE', ( #19, #147, #170, #33 ) ) ;
#163 = CARTESIAN_POINT ( 'NONE',  ( 19.59655121533110000, 1.233972479037147800, -4.375000000026108000 ) ) ;
#164 = CYLINDRICAL_SURFACE ( 'NONE', #193, 3.937500000000000000 ) ;
#165 = PRODUCT_DEFINITION_FORMATION_WITH_SPECIFIED_SOURCE ( 'ANY', '', #140, .NOT_KNOWN. ) ;
#166 = ORIENTED_EDGE ( 'NONE', *, *, #199, .T. ) ;
#167 = UNCERTAINTY_MEASURE_WITH_UNIT (LENGTH_MEASURE( 1.000000000000000100E-005 ), #41, 'distance_accuracy_value', 'NONE');
#168 = SURFACE_STYLE_FILL_AREA ( #64 ) ;
#169 = ORIENTED_EDGE ( 'NONE', *, *, #54, .F. ) ;
#170 = ORIENTED_EDGE ( 'NONE', *, *, #114, .T. ) ;
#171 = DIRECTION ( 'NONE',  ( 0.0000000000000000000, 1.000000000000000000, 0.0000000000000000000 ) ) ;
#172 = FILL_AREA_STYLE ('',( #200 ) ) ;
#173 = PRODUCT_RELATED_PRODUCT_CATEGORY ( 'part', '', ( #140 ) ) ;
#174 = DIRECTION ( 'NONE',  ( 7.888609052210119800E-031, -1.224646799147350000E-016, -1.000000000000000000 ) ) ;
#175 = VECTOR ( 'NONE', #139, 1000.000000000000000 ) ;
#176 = AXIS2_PLACEMENT_3D ( 'NONE', #88, #86, #219 ) ;
#177 =( NAMED_UNIT ( * ) PLANE_ANGLE_UNIT ( ) SI_UNIT ( $, .RADIAN. ) );
#178 = FACE_OUTER_BOUND ( 'NONE', #66, .T. ) ;
#179 = CIRCLE ( 'NONE', #79, 3.312500000051340300 ) ;
#180 = DIRECTION ( 'NONE',  ( 7.888609052210119800E-031, -1.224646799147350000E-016, -1.000000000000000000 ) ) ;
#181 = STYLED_ITEM ( 'NONE', ( #82 ), #194 ) ;
#182 = FILL_AREA_STYLE_COLOUR ( '', #128 ) ;
#183 = UNCERTAINTY_MEASURE_WITH_UNIT (LENGTH_MEASURE( 1.000000000000000100E-005 ), #81, 'distance_accuracy_value', 'NONE');
#184 = CARTESIAN_POINT ( 'NONE',  ( 19.59655121533110000, 1.233972479037269900, 994.9999999999739700 ) ) ;
#185 = DIRECTION ( 'NONE',  ( -0.0000000000000000000, 1.101411730776648300E-016, 1.000000000000000000 ) ) ;
#186 = DIRECTION ( 'NONE',  ( 0.0000000000000000000, 1.000000000000000000, -1.224646799147350000E-016 ) ) ;
#187 = ORIENTED_EDGE ( 'NONE', *, *, #52, .T. ) ;
#188 = EDGE_CURVE ( 'NONE', #40, #105, #1, .T. ) ;
#189 = CARTESIAN_POINT ( 'NONE',  ( 0.0000000000000000000, 0.0000000000000000000, 0.0000000000000000000 ) ) ;
#190 = LINE ( 'NONE', #154, #3 ) ;
#191 = AXIS2_PLACEMENT_3D ( 'NONE', #184, #75, #203 ) ;
#192 = ADVANCED_FACE ( 'NONE', ( #31 ), #56, .F. ) ;
#193 = AXIS2_PLACEMENT_3D ( 'NONE', #127, #174, #27 ) ;
#194 = ADVANCED_FACE ( 'NONE', ( #178 ), #164, .T. ) ;
#195 = ORIENTED_EDGE ( 'NONE', *, *, #48, .F. ) ;
#196 = DIRECTION ( 'NONE',  ( -7.888609052210119800E-031, 1.224646799147350000E-016, 1.000000000000000000 ) ) ;
#197 = FACE_OUTER_BOUND ( 'NONE', #214, .T. ) ;
#198 = MANIFOLD_SOLID_BREP ( 'Importiert1', #76 ) ;
#199 = EDGE_CURVE ( 'NONE', #40, #112, #97, .T. ) ;
#200 = FILL_AREA_STYLE_COLOUR ( '', #125 ) ;
#201 = ORIENTED_EDGE ( 'NONE', *, *, #188, .F. ) ;
#202 = DIRECTION ( 'NONE',  ( 0.0000000000000000000, -1.000000000000000000, 0.0000000000000000000 ) ) ;
#203 = DIRECTION ( 'NONE',  ( 0.0000000000000000000, 1.000000000000000000, -1.224646799147350000E-016 ) ) ;
#204 = PRESENTATION_LAYER_ASSIGNMENT (  '', '', ( #181 ) ) ;
#205 =( NAMED_UNIT ( * ) SI_UNIT ( $, .STERADIAN. ) SOLID_ANGLE_UNIT ( ) );
#206 =( NAMED_UNIT ( * ) PLANE_ANGLE_UNIT ( ) SI_UNIT ( $, .RADIAN. ) );
#207 = UNCERTAINTY_MEASURE_WITH_UNIT (LENGTH_MEASURE( 1.000000000000000100E-005 ), #2, 'distance_accuracy_value', 'NONE');
#208 = APPLICATION_PROTOCOL_DEFINITION ( 'draft international standard', 'automotive_design', 1998, #32 ) ;
#209 =( NAMED_UNIT ( * ) PLANE_ANGLE_UNIT ( ) SI_UNIT ( $, .RADIAN. ) );
#210 = PRODUCT_DEFINITION ( 'UNKNOWN', '', #165, #216 ) ;
#211 = CARTESIAN_POINT ( 'NONE',  ( 19.59655121533110000, 1.233972479037269900, 994.9999999999739700 ) ) ;
#212 = ORIENTED_EDGE ( 'NONE', *, *, #38, .T. ) ;
#213 = FILL_AREA_STYLE ('',( #47 ) ) ;
#214 = EDGE_LOOP ( 'NONE', ( #195, #61 ) ) ;
#215 = ORIENTED_EDGE ( 'NONE', *, *, #35, .F. ) ;
#216 = PRODUCT_DEFINITION_CONTEXT ( 'detailed design', #153, 'design' ) ;
#217 = MECHANICAL_DESIGN_GEOMETRIC_PRESENTATION_REPRESENTATION (  '', ( #102 ), #118 ) ;
#218 = ADVANCED_FACE ( 'NONE', ( #197 ), #17, .T. ) ;
#219 = DIRECTION ( 'NONE',  ( 0.0000000000000000000, -1.000000000000000000, 0.0000000000000000000 ) ) ;
#220 = MECHANICAL_DESIGN_GEOMETRIC_PRESENTATION_REPRESENTATION (  '', ( #181 ), #141 ) ;
ENDSEC;
END-ISO-10303-21;
