ISO-10303-21;
HEADER;
FILE_DESCRIPTION (( 'STEP AP214' ),
    '1' );
FILE_NAME ('7720012',
    '2019-02-04T09:52:16',
    ( '' ),
    ('JUGARD+KÜNSTNER GmbH'),
    'SwSTEP 2.0',
    'SolidWorks 2017',
    '' );
FILE_SCHEMA (( 'AUTOMOTIVE_DESIGN' ));
ENDSEC;

DATA;
#1 = PRODUCT_DEFINITION ( 'UNKNOWN', '', #117, #50 ) ;
#2 = EDGE_LOOP ( 'NONE', ( #36, #61, #38, #130 ) ) ;
#3 =( GEOMETRIC_REPRESENTATION_CONTEXT ( 3 ) GLOBAL_UNCERTAINTY_ASSIGNED_CONTEXT ( ( #21 ) ) GLOBAL_UNIT_ASSIGNED_CONTEXT ( ( #33, #127, #66 ) ) REPRESENTATION_CONTEXT ( 'NONE', 'WORKASPACE' ) );
#4 = PRESENTATION_STYLE_ASSIGNMENT (( #121 ) ) ;
#5 = CARTESIAN_POINT ( 'NONE',  ( -6.792855080511860200E-008, 0.0000000000000000000, 500.0000000000000000 ) ) ;
#6 = VERTEX_POINT ( 'NONE', #64 ) ;
#7 = CARTESIAN_POINT ( 'NONE',  ( 6.999999914304849500, 8.572527572273662900E-016, 500.0000000000000000 ) ) ;
#8 = DIRECTION ( 'NONE',  ( 0.0000000000000000000, 0.0000000000000000000, 1.000000000000000000 ) ) ;
#9 = FILL_AREA_STYLE ('',( #123 ) ) ;
#10 = LINE ( 'NONE', #73, #70 ) ;
#11 = APPLICATION_PROTOCOL_DEFINITION ( 'draft international standard', 'automotive_design', 1998, #43 ) ;
#12 = APPLICATION_PROTOCOL_DEFINITION ( 'draft international standard', 'automotive_design', 1998, #74 ) ;
#13 = STYLED_ITEM ( 'NONE', ( #118 ), #114 ) ;
#14 = SURFACE_STYLE_FILL_AREA ( #95 ) ;
#15 = EDGE_CURVE ( 'NONE', #6, #76, #113, .T. ) ;
#16 = PRESENTATION_LAYER_ASSIGNMENT (  '', '', ( #13 ) ) ;
#17 = PLANE ( 'NONE',  #77 ) ;
#18 = DIRECTION ( 'NONE',  ( 1.000000000000000000, 0.0000000000000000000, -0.0000000000000000000 ) ) ;
#19 = DIRECTION ( 'NONE',  ( 0.0000000000000000000, 0.0000000000000000000, 1.000000000000000000 ) ) ;
#20 = CARTESIAN_POINT ( 'NONE',  ( -7.000000050161951000, 0.0000000000000000000, 500.0000000000000000 ) ) ;
#21 = UNCERTAINTY_MEASURE_WITH_UNIT (LENGTH_MEASURE( 1.000000000000000100E-005 ), #33, 'distance_accuracy_value', 'NONE');
#22 =( NAMED_UNIT ( * ) SI_UNIT ( $, .STERADIAN. ) SOLID_ANGLE_UNIT ( ) );
#23 = CYLINDRICAL_SURFACE ( 'NONE', #108, 6.999999982233400300 ) ;
#24 = SHAPE_DEFINITION_REPRESENTATION ( #26, #114 ) ;
#25 = VERTEX_POINT ( 'NONE', #7 ) ;
#26 = PRODUCT_DEFINITION_SHAPE ( 'NONE', 'NONE',  #1 ) ;
#27 = ADVANCED_FACE ( 'NONE', ( #88 ), #135, .F. ) ;
#28 = AXIS2_PLACEMENT_3D ( 'NONE', #138, #85, #96 ) ;
#29 =( LENGTH_UNIT ( ) NAMED_UNIT ( * ) SI_UNIT ( .MILLI., .METRE. ) );
#30 = CARTESIAN_POINT ( 'NONE',  ( -6.792855080511860200E-008, 0.0000000000000000000, 500.0000000000000000 ) ) ;
#31 = AXIS2_PLACEMENT_3D ( 'NONE', #62, #102, #79 ) ;
#32 = SURFACE_SIDE_STYLE ('',( #109 ) ) ;
#33 =( LENGTH_UNIT ( ) NAMED_UNIT ( * ) SI_UNIT ( .MILLI., .METRE. ) );
#34 = ORIENTED_EDGE ( 'NONE', *, *, #65, .T. ) ;
#35 = PRODUCT_CONTEXT ( 'NONE', #43, 'mechanical' ) ;
#36 = ORIENTED_EDGE ( 'NONE', *, *, #105, .T. ) ;
#37 = CARTESIAN_POINT ( 'NONE',  ( 6.999999914304849500, 8.572527572273662900E-016, 0.0000000000000000000 ) ) ;
#38 = ORIENTED_EDGE ( 'NONE', *, *, #89, .T. ) ;
#39 = FACE_OUTER_BOUND ( 'NONE', #2, .T. ) ;
#40 = CARTESIAN_POINT ( 'NONE',  ( -6.792855080511860200E-008, 0.0000000000000000000, 500.0000000000000000 ) ) ;
#41 = MECHANICAL_DESIGN_GEOMETRIC_PRESENTATION_REPRESENTATION (  '', ( #13 ), #3 ) ;
#42 = ORIENTED_EDGE ( 'NONE', *, *, #60, .F. ) ;
#43 = APPLICATION_CONTEXT ( 'automotive_design' ) ;
#44 = CARTESIAN_POINT ( 'NONE',  ( -6.792855080511860200E-008, 0.0000000000000000000, 500.0000000000000000 ) ) ;
#45 = DIRECTION ( 'NONE',  ( -1.000000000000000000, 0.0000000000000000000, 0.0000000000000000000 ) ) ;
#46 = SURFACE_STYLE_USAGE ( .BOTH. , #104 ) ;
#47 =( LENGTH_UNIT ( ) NAMED_UNIT ( * ) SI_UNIT ( .MILLI., .METRE. ) );
#48 = PRODUCT_RELATED_PRODUCT_CATEGORY ( 'part', '', ( #56 ) ) ;
#49 = EDGE_LOOP ( 'NONE', ( #134, #128 ) ) ;
#50 = PRODUCT_DEFINITION_CONTEXT ( 'detailed design', #74, 'design' ) ;
#51 = EDGE_CURVE ( 'NONE', #76, #140, #67, .T. ) ;
#52 = CARTESIAN_POINT ( 'NONE',  ( -6.792855080511860200E-008, 0.0000000000000000000, 500.0000000000000000 ) ) ;
#53 = DIRECTION ( 'NONE',  ( -1.000000000000000000, 0.0000000000000000000, 0.0000000000000000000 ) ) ;
#54 = EDGE_LOOP ( 'NONE', ( #139, #124 ) ) ;
#55 = PRESENTATION_LAYER_ASSIGNMENT (  '', '', ( #132 ) ) ;
#56 = PRODUCT ( '7720012_CNAJF00', '7720012_CNAJF00', '', ( #35 ) ) ;
#57 = UNCERTAINTY_MEASURE_WITH_UNIT (LENGTH_MEASURE( 1.000000000000000100E-005 ), #29, 'distance_accuracy_value', 'NONE');
#58 = CLOSED_SHELL ( 'NONE', ( #110, #119, #27, #71 ) ) ;
#59 = FACE_OUTER_BOUND ( 'NONE', #83, .T. ) ;
#60 = EDGE_CURVE ( 'NONE', #25, #140, #10, .T. ) ;
#61 = ORIENTED_EDGE ( 'NONE', *, *, #60, .T. ) ;
#62 = CARTESIAN_POINT ( 'NONE',  ( -6.792855080511860200E-008, 0.0000000000000000000, 0.0000000000000000000 ) ) ;
#63 = DIRECTION ( 'NONE',  ( 1.000000000000000000, 0.0000000000000000000, -0.0000000000000000000 ) ) ;
#64 = CARTESIAN_POINT ( 'NONE',  ( -7.000000050161951000, 0.0000000000000000000, 500.0000000000000000 ) ) ;
#65 = EDGE_CURVE ( 'NONE', #25, #6, #107, .T. ) ;
#66 =( NAMED_UNIT ( * ) SI_UNIT ( $, .STERADIAN. ) SOLID_ANGLE_UNIT ( ) );
#67 = CIRCLE ( 'NONE', #31, 6.999999982233400300 ) ;
#68 = FACE_OUTER_BOUND ( 'NONE', #54, .T. ) ;
#69 = MANIFOLD_SOLID_BREP ( 'Importiert1', #58 ) ;
#70 = VECTOR ( 'NONE', #90, 1000.000000000000000 ) ;
#71 = ADVANCED_FACE ( 'NONE', ( #68 ), #17, .T. ) ;
#72 =( NAMED_UNIT ( * ) SI_UNIT ( $, .STERADIAN. ) SOLID_ANGLE_UNIT ( ) );
#73 = CARTESIAN_POINT ( 'NONE',  ( 6.999999914304849500, 8.572527572273662900E-016, 500.0000000000000000 ) ) ;
#74 = APPLICATION_CONTEXT ( 'automotive_design' ) ;
#75 = AXIS2_PLACEMENT_3D ( 'NONE', #5, #116, #80 ) ;
#76 = VERTEX_POINT ( 'NONE', #115 ) ;
#77 = AXIS2_PLACEMENT_3D ( 'NONE', #40, #19, #63 ) ;
#78 = CYLINDRICAL_SURFACE ( 'NONE', #129, 6.999999982233400300 ) ;
#79 = DIRECTION ( 'NONE',  ( -1.000000000000000000, 0.0000000000000000000, 0.0000000000000000000 ) ) ;
#80 = DIRECTION ( 'NONE',  ( -1.000000000000000000, 0.0000000000000000000, 0.0000000000000000000 ) ) ;
#81 =( GEOMETRIC_REPRESENTATION_CONTEXT ( 3 ) GLOBAL_UNCERTAINTY_ASSIGNED_CONTEXT ( ( #125 ) ) GLOBAL_UNIT_ASSIGNED_CONTEXT ( ( #47, #106, #22 ) ) REPRESENTATION_CONTEXT ( 'NONE', 'WORKASPACE' ) );
#82 = DIRECTION ( 'NONE',  ( 0.0000000000000000000, 0.0000000000000000000, -1.000000000000000000 ) ) ;
#83 = EDGE_LOOP ( 'NONE', ( #42, #34, #112, #91 ) ) ;
#84 = CIRCLE ( 'NONE', #98, 6.999999982233400300 ) ;
#85 = DIRECTION ( 'NONE',  ( 0.0000000000000000000, 0.0000000000000000000, 1.000000000000000000 ) ) ;
#86 = FILL_AREA_STYLE_COLOUR ( '', #111 ) ;
#87 = DIRECTION ( 'NONE',  ( -1.000000000000000000, 0.0000000000000000000, 0.0000000000000000000 ) ) ;
#88 = FACE_OUTER_BOUND ( 'NONE', #49, .T. ) ;
#89 = EDGE_CURVE ( 'NONE', #140, #76, #137, .T. ) ;
#90 = DIRECTION ( 'NONE',  ( 0.0000000000000000000, 0.0000000000000000000, -1.000000000000000000 ) ) ;
#91 = ORIENTED_EDGE ( 'NONE', *, *, #51, .T. ) ;
#92 = DIRECTION ( 'NONE',  ( 0.0000000000000000000, 0.0000000000000000000, -1.000000000000000000 ) ) ;
#93 = MECHANICAL_DESIGN_GEOMETRIC_PRESENTATION_REPRESENTATION (  '', ( #132 ), #97 ) ;
#94 = VECTOR ( 'NONE', #82, 1000.000000000000000 ) ;
#95 = FILL_AREA_STYLE ('',( #86 ) ) ;
#96 = DIRECTION ( 'NONE',  ( 1.000000000000000000, 0.0000000000000000000, 0.0000000000000000000 ) ) ;
#97 =( GEOMETRIC_REPRESENTATION_CONTEXT ( 3 ) GLOBAL_UNCERTAINTY_ASSIGNED_CONTEXT ( ( #57 ) ) GLOBAL_UNIT_ASSIGNED_CONTEXT ( ( #29, #103, #72 ) ) REPRESENTATION_CONTEXT ( 'NONE', 'WORKASPACE' ) );
#98 = AXIS2_PLACEMENT_3D ( 'NONE', #52, #92, #87 ) ;
#99 = DIRECTION ( 'NONE',  ( 0.0000000000000000000, 0.0000000000000000000, -1.000000000000000000 ) ) ;
#100 = CARTESIAN_POINT ( 'NONE',  ( -6.792855080511860200E-008, 0.0000000000000000000, 0.0000000000000000000 ) ) ;
#101 = COLOUR_RGB ( '',0.8745098039215686300, 0.9137254901960784000, 1.000000000000000000 ) ;
#102 = DIRECTION ( 'NONE',  ( -0.0000000000000000000, -0.0000000000000000000, 1.000000000000000000 ) ) ;
#103 =( NAMED_UNIT ( * ) PLANE_ANGLE_UNIT ( ) SI_UNIT ( $, .RADIAN. ) );
#104 = SURFACE_SIDE_STYLE ('',( #14 ) ) ;
#105 = EDGE_CURVE ( 'NONE', #6, #25, #84, .T. ) ;
#106 =( NAMED_UNIT ( * ) PLANE_ANGLE_UNIT ( ) SI_UNIT ( $, .RADIAN. ) );
#107 = CIRCLE ( 'NONE', #75, 6.999999982233400300 ) ;
#108 = AXIS2_PLACEMENT_3D ( 'NONE', #30, #99, #53 ) ;
#109 = SURFACE_STYLE_FILL_AREA ( #9 ) ;
#110 = ADVANCED_FACE ( 'NONE', ( #39 ), #23, .T. ) ;
#111 = COLOUR_RGB ( '',0.7529411764705882200, 0.7529411764705882200, 0.7529411764705882200 ) ;
#112 = ORIENTED_EDGE ( 'NONE', *, *, #15, .T. ) ;
#113 = LINE ( 'NONE', #20, #94 ) ;
#114 = ADVANCED_BREP_SHAPE_REPRESENTATION ( '7720012_CNAJF00', ( #69, #28 ), #81 ) ;
#115 = CARTESIAN_POINT ( 'NONE',  ( -7.000000050161951000, 0.0000000000000000000, 0.0000000000000000000 ) ) ;
#116 = DIRECTION ( 'NONE',  ( 0.0000000000000000000, 0.0000000000000000000, -1.000000000000000000 ) ) ;
#117 = PRODUCT_DEFINITION_FORMATION_WITH_SPECIFIED_SOURCE ( 'ANY', '', #56, .NOT_KNOWN. ) ;
#118 = PRESENTATION_STYLE_ASSIGNMENT (( #46 ) ) ;
#119 = ADVANCED_FACE ( 'NONE', ( #59 ), #78, .T. ) ;
#120 = AXIS2_PLACEMENT_3D ( 'NONE', #100, #122, #133 ) ;
#121 = SURFACE_STYLE_USAGE ( .BOTH. , #32 ) ;
#122 = DIRECTION ( 'NONE',  ( -0.0000000000000000000, -0.0000000000000000000, 1.000000000000000000 ) ) ;
#123 = FILL_AREA_STYLE_COLOUR ( '', #101 ) ;
#124 = ORIENTED_EDGE ( 'NONE', *, *, #65, .F. ) ;
#125 = UNCERTAINTY_MEASURE_WITH_UNIT (LENGTH_MEASURE( 1.000000000000000100E-005 ), #47, 'distance_accuracy_value', 'NONE');
#126 = DIRECTION ( 'NONE',  ( 0.0000000000000000000, 0.0000000000000000000, -1.000000000000000000 ) ) ;
#127 =( NAMED_UNIT ( * ) PLANE_ANGLE_UNIT ( ) SI_UNIT ( $, .RADIAN. ) );
#128 = ORIENTED_EDGE ( 'NONE', *, *, #89, .F. ) ;
#129 = AXIS2_PLACEMENT_3D ( 'NONE', #44, #126, #45 ) ;
#130 = ORIENTED_EDGE ( 'NONE', *, *, #15, .F. ) ;
#131 = CARTESIAN_POINT ( 'NONE',  ( -6.792855080511860200E-008, 0.0000000000000000000, 0.0000000000000000000 ) ) ;
#132 = STYLED_ITEM ( 'NONE', ( #4 ), #69 ) ;
#133 = DIRECTION ( 'NONE',  ( -1.000000000000000000, 0.0000000000000000000, 0.0000000000000000000 ) ) ;
#134 = ORIENTED_EDGE ( 'NONE', *, *, #51, .F. ) ;
#135 = PLANE ( 'NONE',  #136 ) ;
#136 = AXIS2_PLACEMENT_3D ( 'NONE', #131, #8, #18 ) ;
#137 = CIRCLE ( 'NONE', #120, 6.999999982233400300 ) ;
#138 = CARTESIAN_POINT ( 'NONE',  ( 0.0000000000000000000, 0.0000000000000000000, 0.0000000000000000000 ) ) ;
#139 = ORIENTED_EDGE ( 'NONE', *, *, #105, .F. ) ;
#140 = VERTEX_POINT ( 'NONE', #37 ) ;
ENDSEC;
END-ISO-10303-21;
