ISO-10303-21;
HEADER;
FILE_DESCRIPTION (( 'STEP AP214' ),
    '1' );
FILE_NAME ('7910465',
    '2019-02-01T13:40:42',
    ( '' ),
    ('JUGARD+KÜNSTNER GmbH'),
    'SwSTEP 2.0',
    'SolidWorks 2017',
    '' );
FILE_SCHEMA (( 'AUTOMOTIVE_DESIGN' ));
ENDSEC;

DATA;
#1 =( GEOMETRIC_REPRESENTATION_CONTEXT ( 3 ) GLOBAL_UNCERTAINTY_ASSIGNED_CONTEXT ( ( #148 ) ) GLOBAL_UNIT_ASSIGNED_CONTEXT ( ( #96, #218, #329 ) ) REPRESENTATION_CONTEXT ( 'NONE', 'WORKASPACE' ) );
#2 = ORIENTED_EDGE ( 'NONE', *, *, #159, .F. ) ;
#3 = PLANE ( 'NONE',  #217 ) ;
#4 = CARTESIAN_POINT ( 'NONE',  ( 15.00000000000000000, -50.00000000000000000, -0.08571428571428550700 ) ) ;
#5 = DIRECTION ( 'NONE',  ( -1.000000000000000000, 0.0000000000000000000, 0.0000000000000000000 ) ) ;
#6 = ORIENTED_EDGE ( 'NONE', *, *, #315, .F. ) ;
#7 = DIRECTION ( 'NONE',  ( 0.0000000000000000000, 0.0000000000000000000, -1.000000000000000000 ) ) ;
#8 = EDGE_CURVE ( 'NONE', #296, #81, #349, .T. ) ;
#9 = ORIENTED_EDGE ( 'NONE', *, *, #243, .F. ) ;
#10 = DIRECTION ( 'NONE',  ( 0.0000000000000000000, 0.0000000000000000000, -1.000000000000000000 ) ) ;
#11 = DIRECTION ( 'NONE',  ( -0.0000000000000000000, -0.0000000000000000000, 1.000000000000000000 ) ) ;
#12 = FILL_AREA_STYLE ('',( #99 ) ) ;
#13 = VECTOR ( 'NONE', #26, 1000.000000000000000 ) ;
#14 = ORIENTED_EDGE ( 'NONE', *, *, #352, .F. ) ;
#15 = DIRECTION ( 'NONE',  ( -0.0000000000000000000, 0.0000000000000000000, -1.000000000000000000 ) ) ;
#16 = PRESENTATION_LAYER_ASSIGNMENT (  '', '', ( #180 ) ) ;
#17 = CARTESIAN_POINT ( 'NONE',  ( 0.0000000000000000000, -50.00000000000000000, 0.7142857142857149700 ) ) ;
#18 = EDGE_CURVE ( 'NONE', #124, #76, #276, .T. ) ;
#19 = EDGE_LOOP ( 'NONE', ( #316, #2, #50, #357 ) ) ;
#20 =( NAMED_UNIT ( * ) PLANE_ANGLE_UNIT ( ) SI_UNIT ( $, .RADIAN. ) );
#21 = LINE ( 'NONE', #279, #250 ) ;
#22 = AXIS2_PLACEMENT_3D ( 'NONE', #208, #139, #205 ) ;
#23 = ORIENTED_EDGE ( 'NONE', *, *, #8, .F. ) ;
#24 = EDGE_CURVE ( 'NONE', #140, #29, #63, .T. ) ;
#25 = PRESENTATION_LAYER_ASSIGNMENT (  '', '', ( #78 ) ) ;
#26 = DIRECTION ( 'NONE',  ( 0.0000000000000000000, -1.000000000000000000, -0.0000000000000000000 ) ) ;
#27 = AXIS2_PLACEMENT_3D ( 'NONE', #198, #92, #67 ) ;
#28 = EDGE_CURVE ( 'NONE', #290, #187, #116, .T. ) ;
#29 = VERTEX_POINT ( 'NONE', #273 ) ;
#30 = SURFACE_SIDE_STYLE ('',( #229 ) ) ;
#31 = PLANE ( 'NONE',  #326 ) ;
#32 = PRODUCT_DEFINITION_FORMATION_WITH_SPECIFIED_SOURCE ( 'ANY', '', #242, .NOT_KNOWN. ) ;
#33 = DIRECTION ( 'NONE',  ( -1.000000000000000000, 0.0000000000000000000, 0.0000000000000000000 ) ) ;
#34 = ORIENTED_EDGE ( 'NONE', *, *, #73, .F. ) ;
#35 = EDGE_CURVE ( 'NONE', #177, #286, #191, .T. ) ;
#36 = CARTESIAN_POINT ( 'NONE',  ( -15.00000000000000000, -50.00000000000000000, 0.7142857142857149700 ) ) ;
#37 = CARTESIAN_POINT ( 'NONE',  ( 15.00000000000000000, -45.00000000000000000, -0.08571428571428550700 ) ) ;
#38 = CARTESIAN_POINT ( 'NONE',  ( 15.00000000000000000, -50.00000000000000000, 0.7142857142857149700 ) ) ;
#39 = VECTOR ( 'NONE', #131, 1000.000000000000000 ) ;
#40 = ORIENTED_EDGE ( 'NONE', *, *, #64, .F. ) ;
#41 = CARTESIAN_POINT ( 'NONE',  ( -15.00000000000000000, 49.99999999999999300, -0.08571428571428550700 ) ) ;
#42 = CARTESIAN_POINT ( 'NONE',  ( 20.00000000000000000, 45.00000000000000000, -0.08571428571428550700 ) ) ;
#43 =( LENGTH_UNIT ( ) NAMED_UNIT ( * ) SI_UNIT ( .MILLI., .METRE. ) );
#44 = APPLICATION_PROTOCOL_DEFINITION ( 'draft international standard', 'automotive_design', 1998, #238 ) ;
#45 = ORIENTED_EDGE ( 'NONE', *, *, #86, .F. ) ;
#46 = CARTESIAN_POINT ( 'NONE',  ( 20.00000000000000000, -1.776356839400250100E-014, -0.08571428571428550700 ) ) ;
#47 = DIRECTION ( 'NONE',  ( 1.000000000000000000, 0.0000000000000000000, 0.0000000000000000000 ) ) ;
#48 = CYLINDRICAL_SURFACE ( 'NONE', #298, 5.000000000000000900 ) ;
#49 = ORIENTED_EDGE ( 'NONE', *, *, #84, .T. ) ;
#50 = ORIENTED_EDGE ( 'NONE', *, *, #73, .T. ) ;
#51 = SHAPE_DEFINITION_REPRESENTATION ( #154, #304 ) ;
#52 = AXIS2_PLACEMENT_3D ( 'NONE', #181, #223, #157 ) ;
#53 = EDGE_LOOP ( 'NONE', ( #169, #291, #195, #156 ) ) ;
#54 = UNCERTAINTY_MEASURE_WITH_UNIT (LENGTH_MEASURE( 1.000000000000000100E-005 ), #345, 'distance_accuracy_value', 'NONE');
#55 = ORIENTED_EDGE ( 'NONE', *, *, #265, .T. ) ;
#56 = CARTESIAN_POINT ( 'NONE',  ( -15.00000000000000000, -50.00000000000000000, -0.08571428571428550700 ) ) ;
#57 = DIRECTION ( 'NONE',  ( -1.000000000000000000, -0.0000000000000000000, 0.0000000000000000000 ) ) ;
#58 = VECTOR ( 'NONE', #137, 1000.000000000000000 ) ;
#59 = CARTESIAN_POINT ( 'NONE',  ( -20.00000000000000000, 45.00000000000000000, 0.7142857142857149700 ) ) ;
#60 = AXIS2_PLACEMENT_3D ( 'NONE', #287, #15, #112 ) ;
#61 = DIRECTION ( 'NONE',  ( 1.000000000000000000, 0.0000000000000000000, -0.0000000000000000000 ) ) ;
#62 = VECTOR ( 'NONE', #340, 1000.000000000000000 ) ;
#63 = LINE ( 'NONE', #144, #252 ) ;
#64 = EDGE_CURVE ( 'NONE', #182, #140, #262, .T. ) ;
#65 = ORIENTED_EDGE ( 'NONE', *, *, #243, .T. ) ;
#66 = DIRECTION ( 'NONE',  ( -1.000000000000000000, 0.0000000000000000000, 0.0000000000000000000 ) ) ;
#67 = DIRECTION ( 'NONE',  ( -1.000000000000000000, 0.0000000000000000000, 0.0000000000000000000 ) ) ;
#68 = CARTESIAN_POINT ( 'NONE',  ( 15.00000000000000000, 49.99999999999999300, -0.08571428571428550700 ) ) ;
#69 = CIRCLE ( 'NONE', #113, 5.000000000000000900 ) ;
#70 = VECTOR ( 'NONE', #10, 1000.000000000000000 ) ;
#71 = CARTESIAN_POINT ( 'NONE',  ( -15.00000000000000000, -50.00000000000000000, -0.08571428571428550700 ) ) ;
#72 = ORIENTED_EDGE ( 'NONE', *, *, #149, .F. ) ;
#73 = EDGE_CURVE ( 'NONE', #142, #296, #342, .T. ) ;
#74 = CARTESIAN_POINT ( 'NONE',  ( 20.00000000000000000, -45.00000000000000000, -0.08571428571428550700 ) ) ;
#75 = CARTESIAN_POINT ( 'NONE',  ( 15.00000000000000000, 50.00000000000000000, 0.7142857142857149700 ) ) ;
#76 = VERTEX_POINT ( 'NONE', #199 ) ;
#77 = DIRECTION ( 'NONE',  ( -1.000000000000000000, 0.0000000000000000000, 0.0000000000000000000 ) ) ;
#78 = STYLED_ITEM ( 'NONE', ( #272 ), #90 ) ;
#79 = CARTESIAN_POINT ( 'NONE',  ( 20.00000000000000000, -1.776356839400250100E-014, 0.7142857142857149700 ) ) ;
#80 = EDGE_CURVE ( 'NONE', #286, #188, #247, .T. ) ;
#81 = VERTEX_POINT ( 'NONE', #4 ) ;
#82 = VERTEX_POINT ( 'NONE', #94 ) ;
#83 = PRODUCT_CONTEXT ( 'NONE', #238, 'mechanical' ) ;
#84 = EDGE_CURVE ( 'NONE', #29, #124, #114, .T. ) ;
#85 = EDGE_LOOP ( 'NONE', ( #210, #230, #330, #356 ) ) ;
#86 = EDGE_CURVE ( 'NONE', #187, #81, #186, .T. ) ;
#87 = ORIENTED_EDGE ( 'NONE', *, *, #319, .F. ) ;
#88 = ADVANCED_FACE ( 'NONE', ( #318 ), #31, .T. ) ;
#89 = AXIS2_PLACEMENT_3D ( 'NONE', #220, #122, #145 ) ;
#90 = MANIFOLD_SOLID_BREP ( 'Importiert1', #211 ) ;
#91 = EDGE_LOOP ( 'NONE', ( #49, #354, #259, #55 ) ) ;
#92 = DIRECTION ( 'NONE',  ( -0.0000000000000000000, -0.0000000000000000000, 1.000000000000000000 ) ) ;
#93 = ADVANCED_FACE ( 'NONE', ( #147 ), #222, .T. ) ;
#94 = CARTESIAN_POINT ( 'NONE',  ( -20.00000000000000000, -45.00000000000000000, 0.7142857142857149700 ) ) ;
#95 = FACE_OUTER_BOUND ( 'NONE', #118, .T. ) ;
#96 =( LENGTH_UNIT ( ) NAMED_UNIT ( * ) SI_UNIT ( .MILLI., .METRE. ) );
#97 = CARTESIAN_POINT ( 'NONE',  ( 20.00000000000000000, -45.00000000000000000, -0.08571428571428550700 ) ) ;
#98 = DIRECTION ( 'NONE',  ( 0.0000000000000000000, 0.0000000000000000000, 1.000000000000000000 ) ) ;
#99 = FILL_AREA_STYLE_COLOUR ( '', #353 ) ;
#100 = UNCERTAINTY_MEASURE_WITH_UNIT (LENGTH_MEASURE( 1.000000000000000100E-005 ), #43, 'distance_accuracy_value', 'NONE');
#101 = LINE ( 'NONE', #41, #207 ) ;
#102 = CARTESIAN_POINT ( 'NONE',  ( 20.00000000000000000, 45.00000000000000000, -0.08571428571428550700 ) ) ;
#103 = ORIENTED_EDGE ( 'NONE', *, *, #341, .F. ) ;
#104 =( GEOMETRIC_REPRESENTATION_CONTEXT ( 3 ) GLOBAL_UNCERTAINTY_ASSIGNED_CONTEXT ( ( #165 ) ) GLOBAL_UNIT_ASSIGNED_CONTEXT ( ( #129, #228, #311 ) ) REPRESENTATION_CONTEXT ( 'NONE', 'WORKASPACE' ) );
#105 = FILL_AREA_STYLE_COLOUR ( '', #106 ) ;
#106 = COLOUR_RGB ( '',0.7529411764705882200, 0.7529411764705882200, 0.7529411764705882200 ) ;
#107 =( NAMED_UNIT ( * ) SI_UNIT ( $, .STERADIAN. ) SOLID_ANGLE_UNIT ( ) );
#108 = CYLINDRICAL_SURFACE ( 'NONE', #60, 5.000000000000000900 ) ;
#109 = VECTOR ( 'NONE', #244, 1000.000000000000000 ) ;
#110 = DIRECTION ( 'NONE',  ( 0.0000000000000000000, -1.000000000000000000, -0.0000000000000000000 ) ) ;
#111 = ORIENTED_EDGE ( 'NONE', *, *, #269, .T. ) ;
#112 = DIRECTION ( 'NONE',  ( -1.000000000000000000, 0.0000000000000000000, 0.0000000000000000000 ) ) ;
#113 = AXIS2_PLACEMENT_3D ( 'NONE', #343, #185, #77 ) ;
#114 = CIRCLE ( 'NONE', #27, 5.000000000000000900 ) ;
#115 =( GEOMETRIC_REPRESENTATION_CONTEXT ( 3 ) GLOBAL_UNCERTAINTY_ASSIGNED_CONTEXT ( ( #54 ) ) GLOBAL_UNIT_ASSIGNED_CONTEXT ( ( #345, #348, #135 ) ) REPRESENTATION_CONTEXT ( 'NONE', 'WORKASPACE' ) );
#116 = LINE ( 'NONE', #56, #141 ) ;
#117 = VERTEX_POINT ( 'NONE', #59 ) ;
#118 = EDGE_LOOP ( 'NONE', ( #143, #355, #351, #133 ) ) ;
#119 = ADVANCED_FACE ( 'NONE', ( #168 ), #240, .T. ) ;
#120 = FACE_OUTER_BOUND ( 'NONE', #237, .T. ) ;
#121 = ADVANCED_FACE ( 'NONE', ( #257 ), #300, .F. ) ;
#122 = DIRECTION ( 'NONE',  ( 0.0000000000000000000, 0.0000000000000000000, -1.000000000000000000 ) ) ;
#123 = FILL_AREA_STYLE_COLOUR ( '', #172 ) ;
#124 = VERTEX_POINT ( 'NONE', #174 ) ;
#125 = CARTESIAN_POINT ( 'NONE',  ( 15.00000000000000000, 45.00000000000000000, 0.7142857142857149700 ) ) ;
#126 = PLANE ( 'NONE',  #212 ) ;
#127 = AXIS2_PLACEMENT_3D ( 'NONE', #37, #203, #258 ) ;
#128 = ORIENTED_EDGE ( 'NONE', *, *, #319, .T. ) ;
#129 =( LENGTH_UNIT ( ) NAMED_UNIT ( * ) SI_UNIT ( .MILLI., .METRE. ) );
#130 = CARTESIAN_POINT ( 'NONE',  ( -15.00000000000000000, 45.00000000000000000, -0.08571428571428550700 ) ) ;
#131 = DIRECTION ( 'NONE',  ( 0.0000000000000000000, 0.0000000000000000000, -1.000000000000000000 ) ) ;
#132 = APPLICATION_PROTOCOL_DEFINITION ( 'draft international standard', 'automotive_design', 1998, #235 ) ;
#133 = ORIENTED_EDGE ( 'NONE', *, *, #331, .T. ) ;
#134 = AXIS2_PLACEMENT_3D ( 'NONE', #136, #317, #233 ) ;
#135 =( NAMED_UNIT ( * ) SI_UNIT ( $, .STERADIAN. ) SOLID_ANGLE_UNIT ( ) );
#136 = CARTESIAN_POINT ( 'NONE',  ( -15.00000000000000000, -45.00000000000000000, -0.08571428571428550700 ) ) ;
#137 = DIRECTION ( 'NONE',  ( -1.000000000000000000, -0.0000000000000000000, -0.0000000000000000000 ) ) ;
#138 = LINE ( 'NONE', #46, #266 ) ;
#139 = DIRECTION ( 'NONE',  ( 1.000000000000000000, 0.0000000000000000000, 0.0000000000000000000 ) ) ;
#140 = VERTEX_POINT ( 'NONE', #278 ) ;
#141 = VECTOR ( 'NONE', #193, 1000.000000000000000 ) ;
#142 = VERTEX_POINT ( 'NONE', #249 ) ;
#143 = ORIENTED_EDGE ( 'NONE', *, *, #159, .T. ) ;
#144 = CARTESIAN_POINT ( 'NONE',  ( 0.0000000000000000000, 50.00000000000000000, -0.08571428571428550700 ) ) ;
#145 = DIRECTION ( 'NONE',  ( -1.000000000000000000, 0.0000000000000000000, 0.0000000000000000000 ) ) ;
#146 = LINE ( 'NONE', #184, #246 ) ;
#147 = FACE_OUTER_BOUND ( 'NONE', #19, .T. ) ;
#148 = UNCERTAINTY_MEASURE_WITH_UNIT (LENGTH_MEASURE( 1.000000000000000100E-005 ), #96, 'distance_accuracy_value', 'NONE');
#149 = EDGE_CURVE ( 'NONE', #81, #293, #334, .T. ) ;
#150 = FILL_AREA_STYLE ('',( #123 ) ) ;
#151 = ADVANCED_FACE ( 'NONE', ( #192 ), #3, .T. ) ;
#152 = CARTESIAN_POINT ( 'NONE',  ( 0.0000000000000000000, -50.00000000000000000, -0.08571428571428550700 ) ) ;
#153 = EDGE_CURVE ( 'NONE', #117, #124, #267, .T. ) ;
#154 = PRODUCT_DEFINITION_SHAPE ( 'NONE', 'NONE',  #306 ) ;
#155 = DIRECTION ( 'NONE',  ( 1.000000000000000000, 0.0000000000000000000, -0.0000000000000000000 ) ) ;
#156 = ORIENTED_EDGE ( 'NONE', *, *, #18, .T. ) ;
#157 = DIRECTION ( 'NONE',  ( -1.000000000000000000, 0.0000000000000000000, 0.0000000000000000000 ) ) ;
#158 = ORIENTED_EDGE ( 'NONE', *, *, #28, .F. ) ;
#159 = EDGE_CURVE ( 'NONE', #142, #293, #323, .T. ) ;
#160 = SURFACE_SIDE_STYLE ('',( #201 ) ) ;
#161 = VECTOR ( 'NONE', #11, 1000.000000000000000 ) ;
#162 = PLANE ( 'NONE',  #22 ) ;
#163 = CARTESIAN_POINT ( 'NONE',  ( 0.0000000000000000000, 0.0000000000000000000, 0.0000000000000000000 ) ) ;
#164 = AXIS2_PLACEMENT_3D ( 'NONE', #175, #248, #325 ) ;
#165 = UNCERTAINTY_MEASURE_WITH_UNIT (LENGTH_MEASURE( 1.000000000000000100E-005 ), #129, 'distance_accuracy_value', 'NONE');
#166 = ORIENTED_EDGE ( 'NONE', *, *, #80, .F. ) ;
#167 = MECHANICAL_DESIGN_GEOMETRIC_PRESENTATION_REPRESENTATION (  '', ( #294 ), #104 ) ;
#168 = FACE_OUTER_BOUND ( 'NONE', #245, .T. ) ;
#169 = ORIENTED_EDGE ( 'NONE', *, *, #302, .F. ) ;
#170 = ORIENTED_EDGE ( 'NONE', *, *, #28, .T. ) ;
#171 = EDGE_CURVE ( 'NONE', #140, #286, #295, .T. ) ;
#172 = COLOUR_RGB ( '',0.8980392156862745400, 0.8980392156862745400, 0.8980392156862745400 ) ;
#173 = DIRECTION ( 'NONE',  ( 1.000000000000000000, 0.0000000000000000000, -0.0000000000000000000 ) ) ;
#174 = CARTESIAN_POINT ( 'NONE',  ( -20.00000000000000000, 45.00000000000000000, -0.08571428571428550700 ) ) ;
#175 = CARTESIAN_POINT ( 'NONE',  ( 15.00000000000000000, -45.00000000000000000, 0.7142857142857149700 ) ) ;
#176 = ORIENTED_EDGE ( 'NONE', *, *, #171, .T. ) ;
#177 = VERTEX_POINT ( 'NONE', #284 ) ;
#178 = CARTESIAN_POINT ( 'NONE',  ( 0.0000000000000000000, -50.00000000000000000, -0.08571428571428550700 ) ) ;
#179 = DIRECTION ( 'NONE',  ( 0.0000000000000000000, 0.0000000000000000000, 1.000000000000000000 ) ) ;
#180 = STYLED_ITEM ( 'NONE', ( #227 ), #304 ) ;
#181 = CARTESIAN_POINT ( 'NONE',  ( -15.00000000000000000, -45.00000000000000000, 0.7142857142857149700 ) ) ;
#182 = VERTEX_POINT ( 'NONE', #102 ) ;
#183 = DIRECTION ( 'NONE',  ( 0.0000000000000000000, 1.000000000000000000, -0.0000000000000000000 ) ) ;
#184 = CARTESIAN_POINT ( 'NONE',  ( -20.00000000000000000, -1.776356839400250100E-014, 0.7142857142857149700 ) ) ;
#185 = DIRECTION ( 'NONE',  ( 0.0000000000000000000, 0.0000000000000000000, -1.000000000000000000 ) ) ;
#186 = LINE ( 'NONE', #152, #347 ) ;
#187 = VERTEX_POINT ( 'NONE', #71 ) ;
#188 = VERTEX_POINT ( 'NONE', #256 ) ;
#189 = SURFACE_STYLE_USAGE ( .BOTH. , #160 ) ;
#190 = SURFACE_STYLE_FILL_AREA ( #12 ) ;
#191 = LINE ( 'NONE', #213, #328 ) ;
#192 = FACE_OUTER_BOUND ( 'NONE', #53, .T. ) ;
#193 = DIRECTION ( 'NONE',  ( 0.0000000000000000000, -0.0000000000000000000, -1.000000000000000000 ) ) ;
#194 = ADVANCED_FACE ( 'NONE', ( #120 ), #126, .T. ) ;
#195 = ORIENTED_EDGE ( 'NONE', *, *, #153, .T. ) ;
#196 = ORIENTED_EDGE ( 'NONE', *, *, #24, .F. ) ;
#197 = DIRECTION ( 'NONE',  ( -0.0000000000000000000, -0.0000000000000000000, 1.000000000000000000 ) ) ;
#198 = CARTESIAN_POINT ( 'NONE',  ( -15.00000000000000000, 45.00000000000000000, -0.08571428571428550700 ) ) ;
#199 = CARTESIAN_POINT ( 'NONE',  ( -20.00000000000000000, -45.00000000000000000, -0.08571428571428550700 ) ) ;
#200 = EDGE_CURVE ( 'NONE', #82, #117, #146, .T. ) ;
#201 = SURFACE_STYLE_FILL_AREA ( #232 ) ;
#202 = LINE ( 'NONE', #17, #58 ) ;
#203 = DIRECTION ( 'NONE',  ( -0.0000000000000000000, -0.0000000000000000000, 1.000000000000000000 ) ) ;
#204 = EDGE_LOOP ( 'NONE', ( #103, #72, #45, #6, #225, #268, #196, #40 ) ) ;
#205 = DIRECTION ( 'NONE',  ( 0.0000000000000000000, 0.0000000000000000000, -1.000000000000000000 ) ) ;
#206 = DIRECTION ( 'NONE',  ( 0.0000000000000000000, 0.0000000000000000000, 1.000000000000000000 ) ) ;
#207 = VECTOR ( 'NONE', #7, 1000.000000000000000 ) ;
#208 = CARTESIAN_POINT ( 'NONE',  ( 20.00000000000000000, -1.776356839400250100E-014, -0.08571428571428550700 ) ) ;
#209 = ORIENTED_EDGE ( 'NONE', *, *, #64, .T. ) ;
#210 = ORIENTED_EDGE ( 'NONE', *, *, #265, .F. ) ;
#211 = CLOSED_SHELL ( 'NONE', ( #121, #119, #305, #93, #194, #308, #151, #214, #88, #297 ) ) ;
#212 = AXIS2_PLACEMENT_3D ( 'NONE', #178, #335, #333 ) ;
#213 = CARTESIAN_POINT ( 'NONE',  ( 0.0000000000000000000, 50.00000000000000000, 0.7142857142857149700 ) ) ;
#214 = ADVANCED_FACE ( 'NONE', ( #239 ), #48, .T. ) ;
#215 = SURFACE_STYLE_USAGE ( .BOTH. , #30 ) ;
#216 = CARTESIAN_POINT ( 'NONE',  ( 0.0000000000000000000, -1.776356839400250100E-014, -0.08571428571428550700 ) ) ;
#217 = AXIS2_PLACEMENT_3D ( 'NONE', #219, #285, #179 ) ;
#218 =( NAMED_UNIT ( * ) PLANE_ANGLE_UNIT ( ) SI_UNIT ( $, .RADIAN. ) );
#219 = CARTESIAN_POINT ( 'NONE',  ( -20.00000000000000000, -1.776356839400250100E-014, -0.08571428571428550700 ) ) ;
#220 = CARTESIAN_POINT ( 'NONE',  ( 15.00000000000000000, -45.00000000000000000, -0.08571428571428550700 ) ) ;
#221 = FACE_OUTER_BOUND ( 'NONE', #236, .T. ) ;
#222 = CYLINDRICAL_SURFACE ( 'NONE', #89, 5.000000000000000900 ) ;
#223 = DIRECTION ( 'NONE',  ( -0.0000000000000000000, 0.0000000000000000000, -1.000000000000000000 ) ) ;
#224 = ORIENTED_EDGE ( 'NONE', *, *, #331, .F. ) ;
#225 = ORIENTED_EDGE ( 'NONE', *, *, #18, .F. ) ;
#226 = CARTESIAN_POINT ( 'NONE',  ( -20.00000000000000000, 45.00000000000000000, -0.08571428571428550700 ) ) ;
#227 = PRESENTATION_STYLE_ASSIGNMENT (( #189 ) ) ;
#228 =( NAMED_UNIT ( * ) PLANE_ANGLE_UNIT ( ) SI_UNIT ( $, .RADIAN. ) );
#229 = SURFACE_STYLE_FILL_AREA ( #150 ) ;
#230 = ORIENTED_EDGE ( 'NONE', *, *, #35, .T. ) ;
#231 = SURFACE_STYLE_USAGE ( .BOTH. , #282 ) ;
#232 = FILL_AREA_STYLE ('',( #105 ) ) ;
#233 = DIRECTION ( 'NONE',  ( -1.000000000000000000, 0.0000000000000000000, 0.0000000000000000000 ) ) ;
#234 = AXIS2_PLACEMENT_3D ( 'NONE', #216, #303, #173 ) ;
#235 = APPLICATION_CONTEXT ( 'automotive_design' ) ;
#236 = EDGE_LOOP ( 'NONE', ( #336, #158, #65, #255 ) ) ;
#237 = EDGE_LOOP ( 'NONE', ( #23, #128, #170, #281 ) ) ;
#238 = APPLICATION_CONTEXT ( 'automotive_design' ) ;
#239 = FACE_OUTER_BOUND ( 'NONE', #91, .T. ) ;
#240 = CYLINDRICAL_SURFACE ( 'NONE', #253, 5.000000000000000900 ) ;
#241 = MECHANICAL_DESIGN_GEOMETRIC_PRESENTATION_REPRESENTATION (  '', ( #180 ), #115 ) ;
#242 = PRODUCT ( '7910465_CNAJF00', '7910465_CNAJF00', '', ( #83 ) ) ;
#243 = EDGE_CURVE ( 'NONE', #290, #82, #289, .T. ) ;
#244 = DIRECTION ( 'NONE',  ( 0.0000000000000000000, 0.0000000000000000000, -1.000000000000000000 ) ) ;
#245 = EDGE_LOOP ( 'NONE', ( #209, #176, #263, #111 ) ) ;
#246 = VECTOR ( 'NONE', #183, 1000.000000000000000 ) ;
#247 = CIRCLE ( 'NONE', #261, 5.000000000000000900 ) ;
#248 = DIRECTION ( 'NONE',  ( 0.0000000000000000000, 0.0000000000000000000, -1.000000000000000000 ) ) ;
#249 = CARTESIAN_POINT ( 'NONE',  ( 20.00000000000000000, -45.00000000000000000, 0.7142857142857149700 ) ) ;
#250 = VECTOR ( 'NONE', #337, 1000.000000000000000 ) ;
#251 = DIRECTION ( 'NONE',  ( 0.0000000000000000000, 0.0000000000000000000, -1.000000000000000000 ) ) ;
#252 = VECTOR ( 'NONE', #57, 1000.000000000000000 ) ;
#253 = AXIS2_PLACEMENT_3D ( 'NONE', #301, #251, #5 ) ;
#254 = DIRECTION ( 'NONE',  ( 0.0000000000000000000, 1.000000000000000000, 0.0000000000000000000 ) ) ;
#255 = ORIENTED_EDGE ( 'NONE', *, *, #302, .T. ) ;
#256 = CARTESIAN_POINT ( 'NONE',  ( 20.00000000000000000, 45.00000000000000000, 0.7142857142857149700 ) ) ;
#257 = FACE_OUTER_BOUND ( 'NONE', #204, .T. ) ;
#258 = DIRECTION ( 'NONE',  ( -1.000000000000000000, 1.387778780781445500E-015, 0.0000000000000000000 ) ) ;
#259 = ORIENTED_EDGE ( 'NONE', *, *, #352, .T. ) ;
#260 = DIRECTION ( 'NONE',  ( 0.0000000000000000000, 0.0000000000000000000, -1.000000000000000000 ) ) ;
#261 = AXIS2_PLACEMENT_3D ( 'NONE', #125, #324, #66 ) ;
#262 = CIRCLE ( 'NONE', #338, 5.000000000000000900 ) ;
#263 = ORIENTED_EDGE ( 'NONE', *, *, #80, .T. ) ;
#264 = DIRECTION ( 'NONE',  ( -0.0000000000000000000, 1.000000000000000000, 0.0000000000000000000 ) ) ;
#265 = EDGE_CURVE ( 'NONE', #177, #29, #101, .T. ) ;
#266 = VECTOR ( 'NONE', #264, 1000.000000000000000 ) ;
#267 = LINE ( 'NONE', #226, #62 ) ;
#268 = ORIENTED_EDGE ( 'NONE', *, *, #84, .F. ) ;
#269 = EDGE_CURVE ( 'NONE', #188, #182, #314, .T. ) ;
#270 = VECTOR ( 'NONE', #110, 1000.000000000000000 ) ;
#271 = AXIS2_PLACEMENT_3D ( 'NONE', #339, #98, #155 ) ;
#272 = PRESENTATION_STYLE_ASSIGNMENT (( #215 ) ) ;
#273 = CARTESIAN_POINT ( 'NONE',  ( -15.00000000000000000, 50.00000000000000000, -0.08571428571428550700 ) ) ;
#274 = CARTESIAN_POINT ( 'NONE',  ( 0.0000000000000000000, 50.00000000000000000, -0.08571428571428550700 ) ) ;
#275 = AXIS2_PLACEMENT_3D ( 'NONE', #163, #206, #47 ) ;
#276 = LINE ( 'NONE', #322, #13 ) ;
#277 = DIRECTION ( 'NONE',  ( 0.0000000000000000000, -0.0000000000000000000, 1.000000000000000000 ) ) ;
#278 = CARTESIAN_POINT ( 'NONE',  ( 15.00000000000000000, 50.00000000000000000, -0.08571428571428550700 ) ) ;
#279 = CARTESIAN_POINT ( 'NONE',  ( -20.00000000000000000, -45.00000000000000000, -0.08571428571428550700 ) ) ;
#280 = EDGE_LOOP ( 'NONE', ( #34, #224, #166, #344, #14, #292, #9, #87 ) ) ;
#281 = ORIENTED_EDGE ( 'NONE', *, *, #86, .T. ) ;
#282 = SURFACE_SIDE_STYLE ('',( #190 ) ) ;
#283 = MECHANICAL_DESIGN_GEOMETRIC_PRESENTATION_REPRESENTATION (  '', ( #78 ), #1 ) ;
#284 = CARTESIAN_POINT ( 'NONE',  ( -15.00000000000000000, 50.00000000000000000, 0.7142857142857149700 ) ) ;
#285 = DIRECTION ( 'NONE',  ( -1.000000000000000000, 0.0000000000000000000, 0.0000000000000000000 ) ) ;
#286 = VERTEX_POINT ( 'NONE', #75 ) ;
#287 = CARTESIAN_POINT ( 'NONE',  ( -15.00000000000000000, -45.00000000000000000, -0.08571428571428550700 ) ) ;
#288 =( GEOMETRIC_REPRESENTATION_CONTEXT ( 3 ) GLOBAL_UNCERTAINTY_ASSIGNED_CONTEXT ( ( #100 ) ) GLOBAL_UNIT_ASSIGNED_CONTEXT ( ( #43, #20, #107 ) ) REPRESENTATION_CONTEXT ( 'NONE', 'WORKASPACE' ) );
#289 = CIRCLE ( 'NONE', #52, 5.000000000000000900 ) ;
#290 = VERTEX_POINT ( 'NONE', #36 ) ;
#291 = ORIENTED_EDGE ( 'NONE', *, *, #200, .T. ) ;
#292 = ORIENTED_EDGE ( 'NONE', *, *, #200, .F. ) ;
#293 = VERTEX_POINT ( 'NONE', #97 ) ;
#294 = STYLED_ITEM ( 'NONE', ( #327 ), #297 ) ;
#295 = LINE ( 'NONE', #68, #161 ) ;
#296 = VERTEX_POINT ( 'NONE', #38 ) ;
#297 = ADVANCED_FACE ( 'NONE', ( #346 ), #309, .T. ) ;
#298 = AXIS2_PLACEMENT_3D ( 'NONE', #130, #260, #312 ) ;
#299 = CIRCLE ( 'NONE', #134, 5.000000000000000900 ) ;
#300 = PLANE ( 'NONE',  #234 ) ;
#301 = CARTESIAN_POINT ( 'NONE',  ( 15.00000000000000000, 45.00000000000000000, -0.08571428571428550700 ) ) ;
#302 = EDGE_CURVE ( 'NONE', #82, #76, #21, .T. ) ;
#303 = DIRECTION ( 'NONE',  ( 0.0000000000000000000, 0.0000000000000000000, 1.000000000000000000 ) ) ;
#304 = ADVANCED_BREP_SHAPE_REPRESENTATION ( '7910465_CNAJF00', ( #90, #275 ), #288 ) ;
#305 = ADVANCED_FACE ( 'NONE', ( #95 ), #162, .T. ) ;
#306 = PRODUCT_DEFINITION ( 'UNKNOWN', '', #32, #350 ) ;
#307 = DIRECTION ( 'NONE',  ( 1.000000000000000000, 0.0000000000000000000, -0.0000000000000000000 ) ) ;
#308 = ADVANCED_FACE ( 'NONE', ( #221 ), #108, .T. ) ;
#309 = PLANE ( 'NONE',  #271 ) ;
#310 = LINE ( 'NONE', #79, #270 ) ;
#311 =( NAMED_UNIT ( * ) SI_UNIT ( $, .STERADIAN. ) SOLID_ANGLE_UNIT ( ) );
#312 = DIRECTION ( 'NONE',  ( -1.000000000000000000, 0.0000000000000000000, 0.0000000000000000000 ) ) ;
#313 = PRESENTATION_LAYER_ASSIGNMENT (  '', '', ( #294 ) ) ;
#314 = LINE ( 'NONE', #42, #70 ) ;
#315 = EDGE_CURVE ( 'NONE', #76, #187, #299, .T. ) ;
#316 = ORIENTED_EDGE ( 'NONE', *, *, #149, .T. ) ;
#317 = DIRECTION ( 'NONE',  ( 0.0000000000000000000, -0.0000000000000000000, 1.000000000000000000 ) ) ;
#318 = FACE_OUTER_BOUND ( 'NONE', #85, .T. ) ;
#319 = EDGE_CURVE ( 'NONE', #296, #290, #202, .T. ) ;
#320 = CARTESIAN_POINT ( 'NONE',  ( 15.00000000000000200, -49.99999999999999300, -0.08571428571428550700 ) ) ;
#321 = PRODUCT_RELATED_PRODUCT_CATEGORY ( 'part', '', ( #242 ) ) ;
#322 = CARTESIAN_POINT ( 'NONE',  ( -20.00000000000000000, -1.776356839400250100E-014, -0.08571428571428550700 ) ) ;
#323 = LINE ( 'NONE', #74, #39 ) ;
#324 = DIRECTION ( 'NONE',  ( 0.0000000000000000000, 0.0000000000000000000, -1.000000000000000000 ) ) ;
#325 = DIRECTION ( 'NONE',  ( -1.000000000000000000, 0.0000000000000000000, 0.0000000000000000000 ) ) ;
#326 = AXIS2_PLACEMENT_3D ( 'NONE', #274, #254, #277 ) ;
#327 = PRESENTATION_STYLE_ASSIGNMENT (( #231 ) ) ;
#328 = VECTOR ( 'NONE', #307, 1000.000000000000000 ) ;
#329 =( NAMED_UNIT ( * ) SI_UNIT ( $, .STERADIAN. ) SOLID_ANGLE_UNIT ( ) );
#330 = ORIENTED_EDGE ( 'NONE', *, *, #171, .F. ) ;
#331 = EDGE_CURVE ( 'NONE', #188, #142, #310, .T. ) ;
#332 = CARTESIAN_POINT ( 'NONE',  ( 15.00000000000000000, 45.00000000000000000, -0.08571428571428550700 ) ) ;
#333 = DIRECTION ( 'NONE',  ( 0.0000000000000000000, -0.0000000000000000000, -1.000000000000000000 ) ) ;
#334 = CIRCLE ( 'NONE', #127, 5.000000000000000900 ) ;
#335 = DIRECTION ( 'NONE',  ( 0.0000000000000000000, -1.000000000000000000, 0.0000000000000000000 ) ) ;
#336 = ORIENTED_EDGE ( 'NONE', *, *, #315, .T. ) ;
#337 = DIRECTION ( 'NONE',  ( -0.0000000000000000000, 0.0000000000000000000, -1.000000000000000000 ) ) ;
#338 = AXIS2_PLACEMENT_3D ( 'NONE', #332, #197, #33 ) ;
#339 = CARTESIAN_POINT ( 'NONE',  ( 0.0000000000000000000, -1.776356839400250100E-014, 0.7142857142857149700 ) ) ;
#340 = DIRECTION ( 'NONE',  ( -0.0000000000000000000, -0.0000000000000000000, -1.000000000000000000 ) ) ;
#341 = EDGE_CURVE ( 'NONE', #293, #182, #138, .T. ) ;
#342 = CIRCLE ( 'NONE', #164, 5.000000000000000900 ) ;
#343 = CARTESIAN_POINT ( 'NONE',  ( -15.00000000000000000, 45.00000000000000000, 0.7142857142857149700 ) ) ;
#344 = ORIENTED_EDGE ( 'NONE', *, *, #35, .F. ) ;
#345 =( LENGTH_UNIT ( ) NAMED_UNIT ( * ) SI_UNIT ( .MILLI., .METRE. ) );
#346 = FACE_OUTER_BOUND ( 'NONE', #280, .T. ) ;
#347 = VECTOR ( 'NONE', #61, 1000.000000000000000 ) ;
#348 =( NAMED_UNIT ( * ) PLANE_ANGLE_UNIT ( ) SI_UNIT ( $, .RADIAN. ) );
#349 = LINE ( 'NONE', #320, #109 ) ;
#350 = PRODUCT_DEFINITION_CONTEXT ( 'detailed design', #235, 'design' ) ;
#351 = ORIENTED_EDGE ( 'NONE', *, *, #269, .F. ) ;
#352 = EDGE_CURVE ( 'NONE', #117, #177, #69, .T. ) ;
#353 = COLOUR_RGB ( '',0.0000000000000000000, 0.2000000000000000100, 0.5999999999999999800 ) ;
#354 = ORIENTED_EDGE ( 'NONE', *, *, #153, .F. ) ;
#355 = ORIENTED_EDGE ( 'NONE', *, *, #341, .T. ) ;
#356 = ORIENTED_EDGE ( 'NONE', *, *, #24, .T. ) ;
#357 = ORIENTED_EDGE ( 'NONE', *, *, #8, .T. ) ;
ENDSEC;
END-ISO-10303-21;
